ISO-10303-21;
HEADER;
FILE_DESCRIPTION (( 'STEP AP203' ),
    '1' );
FILE_NAME ('084.533.003.STEP',
    '2013-01-28T11:01:22',
    ( 'Alusic' ),
    ( 'Alusic' ),
    'SwSTEP 2.0',
    'SolidWorks 2011',
    '' );
FILE_SCHEMA (( 'CONFIG_CONTROL_DESIGN' ));
ENDSEC;

DATA;
#1 = ORIENTED_EDGE ( 'NONE', *, *, #54, .T. ) ;
#2 = ADVANCED_FACE ( 'NONE', ( #167 ), #255, .T. ) ;
#3 = EDGE_CURVE ( 'NONE', #58, #40, #153, .T. ) ;
#4 = ORIENTED_EDGE ( 'NONE', *, *, #36, .F. ) ;
#5 = ORIENTED_EDGE ( 'NONE', *, *, #39, .F. ) ;
#6 = ADVANCED_FACE ( 'NONE', ( #171 ), #157, .T. ) ;
#7 = EDGE_LOOP ( 'NONE', ( #46, #52, #1, #12 ) ) ;
#8 = EDGE_LOOP ( 'NONE', ( #32, #41, #34, #21 ) ) ;
#9 = ORIENTED_EDGE ( 'NONE', *, *, #50, .F. ) ;
#10 = ORIENTED_EDGE ( 'NONE', *, *, #3, .T. ) ;
#11 = ADVANCED_FACE ( 'NONE', ( #154 ), #193, .T. ) ;
#12 = ORIENTED_EDGE ( 'NONE', *, *, #25, .F. ) ;
#13 = CLOSED_SHELL ( 'NONE', ( #19, #29, #6, #51, #23, #30, #11, #2 ) ) ;
#14 = EDGE_LOOP ( 'NONE', ( #26, #68, #65, #59 ) ) ;
#15 = VERTEX_POINT ( 'NONE', #192 ) ;
#16 = VERTEX_POINT ( 'NONE', #173 ) ;
#17 = ORIENTED_EDGE ( 'NONE', *, *, #28, .F. ) ;
#18 = EDGE_CURVE ( 'NONE', #60, #61, #200, .T. ) ;
#19 = ADVANCED_FACE ( 'NONE', ( #252 ), #274, .T. ) ;
#20 = EDGE_LOOP ( 'NONE', ( #27, #48, #38, #5 ) ) ;
#21 = ORIENTED_EDGE ( 'NONE', *, *, #36, .T. ) ;
#22 = EDGE_CURVE ( 'NONE', #61, #60, #253, .T. ) ;
#23 = ADVANCED_FACE ( 'NONE', ( #263 ), #207, .T. ) ;
#24 = EDGE_LOOP ( 'NONE', ( #43, #42 ) ) ;
#25 = EDGE_CURVE ( 'NONE', #15, #16, #271, .T. ) ;
#26 = ORIENTED_EDGE ( 'NONE', *, *, #18, .F. ) ;
#27 = ORIENTED_EDGE ( 'NONE', *, *, #67, .T. ) ;
#28 = EDGE_CURVE ( 'NONE', #40, #57, #176, .T. ) ;
#29 = ADVANCED_FACE ( 'NONE', ( #264 ), #254, .T. ) ;
#30 = ADVANCED_FACE ( 'NONE', ( #162 ), #265, .F. ) ;
#31 = EDGE_LOOP ( 'NONE', ( #33, #9, #10, #4 ) ) ;
#32 = ORIENTED_EDGE ( 'NONE', *, *, #49, .F. ) ;
#33 = ORIENTED_EDGE ( 'NONE', *, *, #62, .F. ) ;
#34 = ORIENTED_EDGE ( 'NONE', *, *, #39, .T. ) ;
#35 = ORIENTED_EDGE ( 'NONE', *, *, #3, .F. ) ;
#36 = EDGE_CURVE ( 'NONE', #57, #40, #165, .T. ) ;
#37 = MANIFOLD_SOLID_BREP ( 'Smusso1', #13 ) ;
#38 = ORIENTED_EDGE ( 'NONE', *, *, #28, .T. ) ;
#39 = EDGE_CURVE ( 'NONE', #16, #57, #248, .T. ) ;
#40 = VERTEX_POINT ( 'NONE', #266 ) ;
#41 = ORIENTED_EDGE ( 'NONE', *, *, #25, .T. ) ;
#42 = ORIENTED_EDGE ( 'NONE', *, *, #55, .T. ) ;
#43 = ORIENTED_EDGE ( 'NONE', *, *, #50, .T. ) ;
#44 = ORIENTED_EDGE ( 'NONE', *, *, #18, .T. ) ;
#45 = ORIENTED_EDGE ( 'NONE', *, *, #22, .T. ) ;
#46 = ORIENTED_EDGE ( 'NONE', *, *, #66, .F. ) ;
#47 = EDGE_LOOP ( 'NONE', ( #45, #44 ) ) ;
#48 = ORIENTED_EDGE ( 'NONE', *, *, #49, .T. ) ;
#49 = EDGE_CURVE ( 'NONE', #15, #40, #185, .T. ) ;
#50 = EDGE_CURVE ( 'NONE', #58, #63, #245, .T. ) ;
#51 = ADVANCED_FACE ( 'NONE', ( #241 ), #180, .T. ) ;
#52 = ORIENTED_EDGE ( 'NONE', *, *, #22, .F. ) ;
#53 = EDGE_LOOP ( 'NONE', ( #56, #64, #17, #35 ) ) ;
#54 = EDGE_CURVE ( 'NONE', #61, #16, #227, .T. ) ;
#55 = EDGE_CURVE ( 'NONE', #63, #58, #228, .T. ) ;
#56 = ORIENTED_EDGE ( 'NONE', *, *, #55, .F. ) ;
#57 = VERTEX_POINT ( 'NONE', #224 ) ;
#58 = VERTEX_POINT ( 'NONE', #223 ) ;
#59 = ORIENTED_EDGE ( 'NONE', *, *, #54, .F. ) ;
#60 = VERTEX_POINT ( 'NONE', #218 ) ;
#61 = VERTEX_POINT ( 'NONE', #225 ) ;
#62 = EDGE_CURVE ( 'NONE', #63, #57, #213, .T. ) ;
#63 = VERTEX_POINT ( 'NONE', #220 ) ;
#64 = ORIENTED_EDGE ( 'NONE', *, *, #62, .T. ) ;
#65 = ORIENTED_EDGE ( 'NONE', *, *, #67, .F. ) ;
#66 = EDGE_CURVE ( 'NONE', #60, #15, #215, .T. ) ;
#67 = EDGE_CURVE ( 'NONE', #16, #15, #219, .T. ) ;
#68 = ORIENTED_EDGE ( 'NONE', *, *, #66, .T. ) ;
#69 = ADVANCED_BREP_SHAPE_REPRESENTATION ( '084.533.003', ( #37, #78 ), #70 ) ;
#70 =( GEOMETRIC_REPRESENTATION_CONTEXT ( 3 ) GLOBAL_UNCERTAINTY_ASSIGNED_CONTEXT ( ( #202 ) ) GLOBAL_UNIT_ASSIGNED_CONTEXT ( ( #256, #204, #203 ) ) REPRESENTATION_CONTEXT ( 'NONE', 'WORKASPACE' ) );
#71 = MECHANICAL_CONTEXT ( 'NONE', #73, 'mechanical' ) ;
#72 = APPLICATION_PROTOCOL_DEFINITION ( 'international standard', 'config_control_design', 1994, #73 ) ;
#73 = APPLICATION_CONTEXT ( 'configuration controlled 3d designs of mechanical parts and assemblies' ) ;
#74 = CARTESIAN_POINT ( 'NONE',  ( 0.0000000000000000000, 0.0000000000000000000, 0.0000000000000000000 ) ) ;
#75 = PRODUCT ( '084.533.003', '084.533.003', '', ( #71 ) ) ;
#76 = DIRECTION ( 'NONE',  ( 1.000000000000000000, 0.0000000000000000000, 0.0000000000000000000 ) ) ;
#77 = DIRECTION ( 'NONE',  ( 0.0000000000000000000, 0.0000000000000000000, 1.000000000000000000 ) ) ;
#78 = AXIS2_PLACEMENT_3D ( 'NONE', #74, #77, #76 ) ;
#79 = PERSON ( 'NON SPECIFICATO', 'NON SPECIFICATO', 'NON SPECIFICATO', ('NON SPECIFICATO'), ('NON SPECIFICATO'), ('NON SPECIFICATO') ) ;
#80 = ORGANIZATION ( 'NON SPECIFICATO', 'NON SPECIFICATO', '' ) ;
#81 = PERSON_AND_ORGANIZATION_ROLE ( 'design_owner' ) ;
#82 = PERSON_AND_ORGANIZATION ( #79, #80 ) ;
#83 = CC_DESIGN_PERSON_AND_ORGANIZATION_ASSIGNMENT ( #82, #81, ( #75 ) ) ;
#84 = APPROVAL_STATUS ( 'not_yet_approved' ) ;
#85 = PERSON_AND_ORGANIZATION ( #79, #80 ) ;
#86 = PRODUCT_DEFINITION_FORMATION_WITH_SPECIFIED_SOURCE ( 'TUTTO', '', #75, .NOT_KNOWN. ) ;
#87 = CC_DESIGN_DATE_AND_TIME_ASSIGNMENT ( #89, #88, ( #108 ) ) ;
#88 = DATE_TIME_ROLE ( 'creation_date' ) ;
#89 = DATE_AND_TIME ( #90, #91 ) ;
#90 = CALENDAR_DATE ( 2013, 28, 1 ) ;
#91 = LOCAL_TIME ( 12, 1, 22.00000000000000000, #92 ) ;
#92 = COORDINATED_UNIVERSAL_TIME_OFFSET ( 1, 0, .AHEAD. ) ;
#93 = CC_DESIGN_PERSON_AND_ORGANIZATION_ASSIGNMENT ( #95, #94, ( #108 ) ) ;
#94 = PERSON_AND_ORGANIZATION_ROLE ( 'creator' ) ;
#95 = PERSON_AND_ORGANIZATION ( #79, #80 ) ;
#96 = CC_DESIGN_APPROVAL ( #104, ( #108 ) ) ;
#97 = APPROVAL_DATE_TIME ( #98, #104 ) ;
#98 = DATE_AND_TIME ( #99, #100 ) ;
#99 = CALENDAR_DATE ( 2013, 28, 1 ) ;
#100 = LOCAL_TIME ( 12, 1, 22.00000000000000000, #101 ) ;
#101 = COORDINATED_UNIVERSAL_TIME_OFFSET ( 1, 0, .AHEAD. ) ;
#102 = APPROVAL_PERSON_ORGANIZATION ( #106, #104, #103 ) ;
#103 = APPROVAL_ROLE ( '' ) ;
#104 = APPROVAL ( #105, 'NON SPECIFICATO' ) ;
#105 = APPROVAL_STATUS ( 'not_yet_approved' ) ;
#106 = PERSON_AND_ORGANIZATION ( #79, #80 ) ;
#107 = DESIGN_CONTEXT ( 'detailed design', #110, 'design' ) ;
#108 = PRODUCT_DEFINITION ( 'NON CONOSCIUTO', '', #86, #107 ) ;
#109 = APPLICATION_PROTOCOL_DEFINITION ( 'international standard', 'config_control_design', 1994, #110 ) ;
#110 = APPLICATION_CONTEXT ( 'configuration controlled 3d designs of mechanical parts and assemblies' ) ;
#111 = CC_DESIGN_PERSON_AND_ORGANIZATION_ASSIGNMENT ( #113, #112, ( #114 ) ) ;
#112 = PERSON_AND_ORGANIZATION_ROLE ( 'classification_officer' ) ;
#113 = PERSON_AND_ORGANIZATION ( #79, #80 ) ;
#114 = SECURITY_CLASSIFICATION ( '', '', #115 ) ;
#115 = SECURITY_CLASSIFICATION_LEVEL ( 'unclassified' ) ;
#116 = CC_DESIGN_PERSON_AND_ORGANIZATION_ASSIGNMENT ( #118, #117, ( #86 ) ) ;
#117 = PERSON_AND_ORGANIZATION_ROLE ( 'design_supplier' ) ;
#118 = PERSON_AND_ORGANIZATION ( #79, #80 ) ;
#119 = CC_DESIGN_PERSON_AND_ORGANIZATION_ASSIGNMENT ( #121, #120, ( #86 ) ) ;
#120 = PERSON_AND_ORGANIZATION_ROLE ( 'creator' ) ;
#121 = PERSON_AND_ORGANIZATION ( #79, #80 ) ;
#122 = CC_DESIGN_APPROVAL ( #130, ( #86 ) ) ;
#123 = APPROVAL_DATE_TIME ( #124, #130 ) ;
#124 = DATE_AND_TIME ( #125, #126 ) ;
#125 = CALENDAR_DATE ( 2013, 28, 1 ) ;
#126 = LOCAL_TIME ( 12, 1, 22.00000000000000000, #127 ) ;
#127 = COORDINATED_UNIVERSAL_TIME_OFFSET ( 1, 0, .AHEAD. ) ;
#128 = APPROVAL_PERSON_ORGANIZATION ( #85, #130, #129 ) ;
#129 = APPROVAL_ROLE ( '' ) ;
#130 = APPROVAL ( #84, 'NON SPECIFICATO' ) ;
#131 = CC_DESIGN_SECURITY_CLASSIFICATION ( #114, ( #86 ) ) ;
#132 = CC_DESIGN_APPROVAL ( #143, ( #114 ) ) ;
#133 = APPROVAL_DATE_TIME ( #134, #143 ) ;
#134 = DATE_AND_TIME ( #135, #140 ) ;
#135 = CALENDAR_DATE ( 2013, 28, 1 ) ;
#136 = APPROVAL_ROLE ( '' ) ;
#137 = APPROVAL_STATUS ( 'not_yet_approved' ) ;
#138 = PERSON_AND_ORGANIZATION ( #79, #80 ) ;
#139 = LOCAL_TIME ( 12, 1, 22.00000000000000000, #149 ) ;
#140 = LOCAL_TIME ( 12, 1, 22.00000000000000000, #141 ) ;
#141 = COORDINATED_UNIVERSAL_TIME_OFFSET ( 1, 0, .AHEAD. ) ;
#142 = APPROVAL_PERSON_ORGANIZATION ( #138, #143, #136 ) ;
#143 = APPROVAL ( #137, 'NON SPECIFICATO' ) ;
#144 = DATE_TIME_ROLE ( 'classification_date' ) ;
#145 = CC_DESIGN_DATE_AND_TIME_ASSIGNMENT ( #146, #144, ( #114 ) ) ;
#146 = DATE_AND_TIME ( #151, #139 ) ;
#147 = PRODUCT_DEFINITION_SHAPE ( 'NONE', 'NONE',  #108 ) ;
#148 = PRODUCT_RELATED_PRODUCT_CATEGORY ( 'detail', '', ( #75 ) ) ;
#149 = COORDINATED_UNIVERSAL_TIME_OFFSET ( 1, 0, .AHEAD. ) ;
#150 = SHAPE_DEFINITION_REPRESENTATION ( #147, #69 ) ;
#151 = CALENDAR_DATE ( 2013, 28, 1 ) ;
#152 = VECTOR ( 'NONE', #170, 1000.000000000000000 ) ;
#153 = LINE ( 'NONE', #194, #152 ) ;
#154 = FACE_OUTER_BOUND ( 'NONE', #31, .T. ) ;
#155 = DIRECTION ( 'NONE',  ( 0.0000000000000000000, 0.0000000000000000000, -1.000000000000000000 ) ) ;
#156 = AXIS2_PLACEMENT_3D ( 'NONE', #262, #273, #205 ) ;
#157 = CYLINDRICAL_SURFACE ( 'NONE', #195, 4.000000000000000000 ) ;
#158 = DIRECTION ( 'NONE',  ( 0.0000000000000000000, 0.0000000000000000000, -1.000000000000000000 ) ) ;
#159 = DIRECTION ( 'NONE',  ( 0.0000000000000000000, -1.000000000000000000, 0.0000000000000000000 ) ) ;
#160 = DIRECTION ( 'NONE',  ( -0.0000000000000000000, -1.000000000000000000, -0.0000000000000000000 ) ) ;
#161 = AXIS2_PLACEMENT_3D ( 'NONE', #206, #187, #186 ) ;
#162 = FACE_OUTER_BOUND ( 'NONE', #24, .T. ) ;
#163 = DIRECTION ( 'NONE',  ( 0.0000000000000000000, 0.0000000000000000000, 1.000000000000000000 ) ) ;
#164 = DIRECTION ( 'NONE',  ( -0.0000000000000000000, 1.000000000000000000, -0.0000000000000000000 ) ) ;
#165 = CIRCLE ( 'NONE', #178, 4.000000000000000000 ) ;
#166 = DIRECTION ( 'NONE',  ( -0.0000000000000000000, 1.000000000000000000, -0.0000000000000000000 ) ) ;
#167 = FACE_OUTER_BOUND ( 'NONE', #7, .T. ) ;
#168 = AXIS2_PLACEMENT_3D ( 'NONE', #169, #159, #158 ) ;
#169 = CARTESIAN_POINT ( 'NONE',  ( 0.0000000000000000000, 40.00000000000000000, 0.0000000000000000000 ) ) ;
#170 = DIRECTION ( 'NONE',  ( 0.0000000000000000000, 0.7071067811865426900, 0.7071067811865524600 ) ) ;
#171 = FACE_OUTER_BOUND ( 'NONE', #20, .T. ) ;
#172 = AXIS2_PLACEMENT_3D ( 'NONE', #251, #261, #155 ) ;
#173 = CARTESIAN_POINT ( 'NONE',  ( 0.0000000000000000000, 39.50000000000000700, -4.000000000000000000 ) ) ;
#174 = DIRECTION ( 'NONE',  ( 0.0000000000000000000, -0.0000000000000000000, 1.000000000000000000 ) ) ;
#175 = AXIS2_PLACEMENT_3D ( 'NONE', #208, #164, #163 ) ;
#176 = CIRCLE ( 'NONE', #175, 4.000000000000000000 ) ;
#177 = DIRECTION ( 'NONE',  ( -0.0000000000000000000, 1.000000000000000000, -0.0000000000000000000 ) ) ;
#178 = AXIS2_PLACEMENT_3D ( 'NONE', #188, #177, #250 ) ;
#179 = CARTESIAN_POINT ( 'NONE',  ( 0.0000000000000000000, 40.00000000000000000, -4.000000000000000000 ) ) ;
#180 = CYLINDRICAL_SURFACE ( 'NONE', #244, 4.000000000000000000 ) ;
#181 = DIRECTION ( 'NONE',  ( 0.0000000000000000000, -0.0000000000000000000, 1.000000000000000000 ) ) ;
#182 = DIRECTION ( 'NONE',  ( 0.0000000000000000000, 1.000000000000000000, 0.0000000000000000000 ) ) ;
#183 = CARTESIAN_POINT ( 'NONE',  ( 0.0000000000000000000, 0.0000000000000000000, 0.0000000000000000000 ) ) ;
#184 = AXIS2_PLACEMENT_3D ( 'NONE', #183, #182, #181 ) ;
#185 = LINE ( 'NONE', #189, #243 ) ;
#186 = DIRECTION ( 'NONE',  ( 0.0000000000000000000, 0.0000000000000000000, 1.000000000000000000 ) ) ;
#187 = DIRECTION ( 'NONE',  ( -0.0000000000000000000, 1.000000000000000000, -0.0000000000000000000 ) ) ;
#188 = CARTESIAN_POINT ( 'NONE',  ( 0.0000000000000000000, 0.4999999999999865700, 0.0000000000000000000 ) ) ;
#189 = CARTESIAN_POINT ( 'NONE',  ( 4.898587196589412800E-016, 40.00000000000000000, 4.000000000000000000 ) ) ;
#190 = CARTESIAN_POINT ( 'NONE',  ( 0.0000000000000000000, 40.00000000000000000, 0.0000000000000000000 ) ) ;
#191 = AXIS2_PLACEMENT_3D ( 'NONE', #260, #166, #201 ) ;
#192 = CARTESIAN_POINT ( 'NONE',  ( 4.898587196589412800E-016, 39.50000000000000700, 4.000000000000000000 ) ) ;
#193 = CONICAL_SURFACE ( 'NONE', #191, 4.000000000000000000, 0.7853981633974552700 ) ;
#194 = CARTESIAN_POINT ( 'NONE',  ( 0.0000000000000000000, 0.4999999999999865700, 4.000000000000000000 ) ) ;
#195 = AXIS2_PLACEMENT_3D ( 'NONE', #190, #160, #233 ) ;
#196 = DIRECTION ( 'NONE',  ( 0.0000000000000000000, 0.0000000000000000000, 1.000000000000000000 ) ) ;
#197 = DIRECTION ( 'NONE',  ( 0.0000000000000000000, 1.000000000000000000, 0.0000000000000000000 ) ) ;
#198 = CARTESIAN_POINT ( 'NONE',  ( 0.0000000000000000000, 40.00000000000000000, 0.0000000000000000000 ) ) ;
#199 = AXIS2_PLACEMENT_3D ( 'NONE', #198, #197, #196 ) ;
#200 = CIRCLE ( 'NONE', #199, 3.500000000000003100 ) ;
#201 = DIRECTION ( 'NONE',  ( 0.0000000000000000000, 0.0000000000000000000, 1.000000000000000000 ) ) ;
#202 = UNCERTAINTY_MEASURE_WITH_UNIT (LENGTH_MEASURE( 1.000000000000000100E-005 ), #256, 'distance_accuracy_value', 'NONE');
#203 =( NAMED_UNIT ( * ) SI_UNIT ( $, .STERADIAN. ) SOLID_ANGLE_UNIT ( ) );
#204 =( NAMED_UNIT ( * ) PLANE_ANGLE_UNIT ( ) SI_UNIT ( $, .RADIAN. ) );
#205 = DIRECTION ( 'NONE',  ( 0.0000000000000000000, 0.0000000000000000000, 1.000000000000000000 ) ) ;
#206 = CARTESIAN_POINT ( 'NONE',  ( 0.0000000000000000000, 0.4999999999999865700, 0.0000000000000000000 ) ) ;
#207 = PLANE ( 'NONE',  #275 ) ;
#208 = CARTESIAN_POINT ( 'NONE',  ( 0.0000000000000000000, 0.4999999999999865700, 0.0000000000000000000 ) ) ;
#209 = CARTESIAN_POINT ( 'NONE',  ( 0.0000000000000000000, 40.00000000000000000, 0.0000000000000000000 ) ) ;
#210 = AXIS2_PLACEMENT_3D ( 'NONE', #214, #258, #257 ) ;
#211 = DIRECTION ( 'NONE',  ( 8.659560562354993300E-017, 0.7071067811865426900, -0.7071067811865524600 ) ) ;
#212 = VECTOR ( 'NONE', #211, 1000.000000000000000 ) ;
#213 = LINE ( 'NONE', #240, #212 ) ;
#214 = CARTESIAN_POINT ( 'NONE',  ( 0.0000000000000000000, 39.50000000000000700, 0.0000000000000000000 ) ) ;
#215 = LINE ( 'NONE', #217, #259 ) ;
#216 = DIRECTION ( 'NONE',  ( 8.659560562354964900E-017, -0.7071067811865450200, 0.7071067811865500200 ) ) ;
#217 = CARTESIAN_POINT ( 'NONE',  ( 4.286263797015740000E-016, 40.00000000000000000, 3.500000000000003100 ) ) ;
#218 = CARTESIAN_POINT ( 'NONE',  ( 4.592425496802575900E-016, 40.00000000000000000, 3.500000000000003100 ) ) ;
#219 = CIRCLE ( 'NONE', #210, 4.000000000000000000 ) ;
#220 = CARTESIAN_POINT ( 'NONE',  ( 4.592425496802577900E-016, 0.0000000000000000000, -3.500000000000006700 ) ) ;
#221 = DIRECTION ( 'NONE',  ( 0.0000000000000000000, 0.0000000000000000000, 1.000000000000000000 ) ) ;
#222 = DIRECTION ( 'NONE',  ( -0.0000000000000000000, -1.000000000000000000, -0.0000000000000000000 ) ) ;
#223 = CARTESIAN_POINT ( 'NONE',  ( 0.0000000000000000000, 0.0000000000000000000, 3.500000000000006700 ) ) ;
#224 = CARTESIAN_POINT ( 'NONE',  ( 0.0000000000000000000, 0.4999999999999865700, -4.000000000000000000 ) ) ;
#225 = CARTESIAN_POINT ( 'NONE',  ( 0.0000000000000000000, 40.00000000000000000, -3.500000000000003100 ) ) ;
#226 = VECTOR ( 'NONE', #238, 1000.000000000000000 ) ;
#227 = LINE ( 'NONE', #230, #226 ) ;
#228 = CIRCLE ( 'NONE', #232, 3.500000000000006700 ) ;
#229 = DIRECTION ( 'NONE',  ( 0.0000000000000000000, 0.0000000000000000000, -1.000000000000000000 ) ) ;
#230 = CARTESIAN_POINT ( 'NONE',  ( 0.0000000000000000000, 40.00000000000000000, -3.500000000000003100 ) ) ;
#231 = CARTESIAN_POINT ( 'NONE',  ( 0.0000000000000000000, 0.0000000000000000000, 0.0000000000000000000 ) ) ;
#232 = AXIS2_PLACEMENT_3D ( 'NONE', #231, #222, #221 ) ;
#233 = DIRECTION ( 'NONE',  ( 0.0000000000000000000, 0.0000000000000000000, -1.000000000000000000 ) ) ;
#234 = DIRECTION ( 'NONE',  ( 0.0000000000000000000, 0.0000000000000000000, 1.000000000000000000 ) ) ;
#235 = DIRECTION ( 'NONE',  ( -0.0000000000000000000, -1.000000000000000000, -0.0000000000000000000 ) ) ;
#236 = CARTESIAN_POINT ( 'NONE',  ( 0.0000000000000000000, 0.0000000000000000000, 0.0000000000000000000 ) ) ;
#237 = AXIS2_PLACEMENT_3D ( 'NONE', #236, #235, #234 ) ;
#238 = DIRECTION ( 'NONE',  ( 0.0000000000000000000, -0.7071067811865450200, -0.7071067811865500200 ) ) ;
#239 = CARTESIAN_POINT ( 'NONE',  ( 0.0000000000000000000, 40.00000000000000000, 0.0000000000000000000 ) ) ;
#240 = CARTESIAN_POINT ( 'NONE',  ( 4.898587196589412800E-016, 0.4999999999999865700, -4.000000000000000000 ) ) ;
#241 = FACE_OUTER_BOUND ( 'NONE', #8, .T. ) ;
#242 = DIRECTION ( 'NONE',  ( -0.0000000000000000000, -1.000000000000000000, -0.0000000000000000000 ) ) ;
#243 = VECTOR ( 'NONE', #242, 1000.000000000000000 ) ;
#244 = AXIS2_PLACEMENT_3D ( 'NONE', #239, #249, #229 ) ;
#245 = CIRCLE ( 'NONE', #237, 3.500000000000006700 ) ;
#246 = DIRECTION ( 'NONE',  ( -0.0000000000000000000, -1.000000000000000000, -0.0000000000000000000 ) ) ;
#247 = VECTOR ( 'NONE', #246, 1000.000000000000000 ) ;
#248 = LINE ( 'NONE', #179, #247 ) ;
#249 = DIRECTION ( 'NONE',  ( -0.0000000000000000000, -1.000000000000000000, -0.0000000000000000000 ) ) ;
#250 = DIRECTION ( 'NONE',  ( 0.0000000000000000000, 0.0000000000000000000, 1.000000000000000000 ) ) ;
#251 = CARTESIAN_POINT ( 'NONE',  ( 0.0000000000000000000, 40.00000000000000000, 0.0000000000000000000 ) ) ;
#252 = FACE_OUTER_BOUND ( 'NONE', #14, .T. ) ;
#253 = CIRCLE ( 'NONE', #156, 3.500000000000003100 ) ;
#254 = CONICAL_SURFACE ( 'NONE', #161, 4.000000000000000000, 0.7853981633974552700 ) ;
#255 = CONICAL_SURFACE ( 'NONE', #168, 3.500000000000003100, 0.7853981633974518300 ) ;
#256 =( LENGTH_UNIT ( ) NAMED_UNIT ( * ) SI_UNIT ( .MILLI., .METRE. ) );
#257 = DIRECTION ( 'NONE',  ( 0.0000000000000000000, 0.0000000000000000000, 1.000000000000000000 ) ) ;
#258 = DIRECTION ( 'NONE',  ( 0.0000000000000000000, -1.000000000000000000, 0.0000000000000000000 ) ) ;
#259 = VECTOR ( 'NONE', #216, 1000.000000000000000 ) ;
#260 = CARTESIAN_POINT ( 'NONE',  ( 0.0000000000000000000, 0.4999999999999865700, 0.0000000000000000000 ) ) ;
#261 = DIRECTION ( 'NONE',  ( 0.0000000000000000000, -1.000000000000000000, 0.0000000000000000000 ) ) ;
#262 = CARTESIAN_POINT ( 'NONE',  ( 0.0000000000000000000, 40.00000000000000000, 0.0000000000000000000 ) ) ;
#263 = FACE_OUTER_BOUND ( 'NONE', #47, .T. ) ;
#264 = FACE_OUTER_BOUND ( 'NONE', #53, .T. ) ;
#265 = PLANE ( 'NONE',  #184 ) ;
#266 = CARTESIAN_POINT ( 'NONE',  ( 4.898587196589412800E-016, 0.4999999999999865700, 4.000000000000000000 ) ) ;
#267 = DIRECTION ( 'NONE',  ( 0.0000000000000000000, 0.0000000000000000000, 1.000000000000000000 ) ) ;
#268 = DIRECTION ( 'NONE',  ( 0.0000000000000000000, -1.000000000000000000, 0.0000000000000000000 ) ) ;
#269 = CARTESIAN_POINT ( 'NONE',  ( 0.0000000000000000000, 39.50000000000000700, 0.0000000000000000000 ) ) ;
#270 = AXIS2_PLACEMENT_3D ( 'NONE', #269, #268, #267 ) ;
#271 = CIRCLE ( 'NONE', #270, 4.000000000000000000 ) ;
#272 = DIRECTION ( 'NONE',  ( 0.0000000000000000000, 1.000000000000000000, 0.0000000000000000000 ) ) ;
#273 = DIRECTION ( 'NONE',  ( 0.0000000000000000000, 1.000000000000000000, 0.0000000000000000000 ) ) ;
#274 = CONICAL_SURFACE ( 'NONE', #172, 3.500000000000003100, 0.7853981633974518300 ) ;
#275 = AXIS2_PLACEMENT_3D ( 'NONE', #209, #272, #174 ) ;
ENDSEC;
END-ISO-10303-21;
