ISO-10303-21;
HEADER;
FILE_DESCRIPTION (( 'STEP AP203' ),
    '1' );
FILE_NAME ('084.533.001.STEP',
    '2013-01-28T11:00:25',
    ( 'Alusic' ),
    ( 'Alusic' ),
    'SwSTEP 2.0',
    'SolidWorks 2011',
    '' );
FILE_SCHEMA (( 'CONFIG_CONTROL_DESIGN' ));
ENDSEC;

DATA;
#1 = LOCAL_TIME ( 12, 0, 25.00000000000000000, #4 ) ;
#2 = APPROVAL_STATUS ( 'not_yet_approved' ) ;
#3 = APPROVAL_PERSON_ORGANIZATION ( #357, #7, #9 ) ;
#4 = COORDINATED_UNIVERSAL_TIME_OFFSET ( 1, 0, .AHEAD. ) ;
#5 = DATE_AND_TIME ( #8, #158 ) ;
#6 = CALENDAR_DATE ( 2013, 28, 1 ) ;
#7 = APPROVAL ( #2, 'NON SPECIFICATO' ) ;
#8 = CALENDAR_DATE ( 2013, 28, 1 ) ;
#9 = APPROVAL_ROLE ( '' ) ;
#10 = DATE_TIME_ROLE ( 'creation_date' ) ;
#11 = CC_DESIGN_DATE_AND_TIME_ASSIGNMENT ( #5, #10, ( #166 ) ) ;
#12 = DATE_AND_TIME ( #6, #1 ) ;
#13 = APPROVAL_DATE_TIME ( #12, #7 ) ;
#14 = CC_DESIGN_APPROVAL ( #7, ( #373 ) ) ;
#15 = CC_DESIGN_PERSON_AND_ORGANIZATION_ASSIGNMENT ( #17, #18, ( #293 ) ) ;
#16 = ORGANIZATION ( 'NON SPECIFICATO', 'NON SPECIFICATO', '' ) ;
#17 = PERSON_AND_ORGANIZATION ( #292, #16 ) ;
#18 = PERSON_AND_ORGANIZATION_ROLE ( 'design_owner' ) ;
#19 = VERTEX_POINT ( 'NONE', #31 ) ;
#20 = DIRECTION ( 'NONE',  ( -1.109335647967046800E-031, -6.661338147750933300E-016, 1.000000000000000000 ) ) ;
#21 = DIRECTION ( 'NONE',  ( -1.000000000000000000, -3.328006943901143600E-031, 1.725633230170963300E-031 ) ) ;
#22 = CARTESIAN_POINT ( 'NONE',  ( 0.0000000000000000000, 0.0000000000000000000, 0.0000000000000000000 ) ) ;
#23 = AXIS2_PLACEMENT_3D ( 'NONE', #22, #21, #20 ) ;
#24 = DIRECTION ( 'NONE',  ( 0.0000000000000000000, -6.661338147750933300E-016, 1.000000000000000000 ) ) ;
#25 = DIRECTION ( 'NONE',  ( -1.000000000000000000, -3.328006943901143600E-031, 1.725633230170963300E-031 ) ) ;
#26 = AXIS2_PLACEMENT_3D ( 'NONE', #47, #25, #24 ) ;
#27 = CYLINDRICAL_SURFACE ( 'NONE', #23, 4.050000000000003400 ) ;
#28 = APPROVAL_STATUS ( 'not_yet_approved' ) ;
#29 = APPLICATION_PROTOCOL_DEFINITION ( 'international standard', 'config_control_design', 1994, #156 ) ;
#30 = FACE_OUTER_BOUND ( 'NONE', #93, .T. ) ;
#31 = CARTESIAN_POINT ( 'NONE',  ( 17.99999999999998900, 3.193823903493809300E-015, -4.049999999999999800 ) ) ;
#32 = CARTESIAN_POINT ( 'NONE',  ( 3.000000000000002700, 0.0000000000000000000, 0.0000000000000000000 ) ) ;
#33 = PERSON_AND_ORGANIZATION ( #292, #16 ) ;
#34 = CC_DESIGN_APPROVAL ( #132, ( #166 ) ) ;
#35 = APPROVAL_DATE_TIME ( #36, #132 ) ;
#36 = DATE_AND_TIME ( #127, #128 ) ;
#37 = ADVANCED_FACE ( 'NONE', ( #30 ), #104, .T. ) ;
#38 = ORIENTED_EDGE ( 'NONE', *, *, #112, .T. ) ;
#39 = ORIENTED_EDGE ( 'NONE', *, *, #82, .F. ) ;
#40 = EDGE_LOOP ( 'NONE', ( #41, #43, #46, #42 ) ) ;
#41 = ORIENTED_EDGE ( 'NONE', *, *, #120, .F. ) ;
#42 = ORIENTED_EDGE ( 'NONE', *, *, #71, .T. ) ;
#43 = ORIENTED_EDGE ( 'NONE', *, *, #94, .F. ) ;
#44 = ADVANCED_FACE ( 'NONE', ( #45 ), #27, .F. ) ;
#45 = FACE_OUTER_BOUND ( 'NONE', #40, .T. ) ;
#46 = ORIENTED_EDGE ( 'NONE', *, *, #123, .T. ) ;
#47 = CARTESIAN_POINT ( 'NONE',  ( 17.00000000000001400, 0.0000000000000000000, 0.0000000000000000000 ) ) ;
#48 = MANIFOLD_SOLID_BREP ( 'Smusso1', #134 ) ;
#49 = ORIENTED_EDGE ( 'NONE', *, *, #108, .F. ) ;
#50 = EDGE_CURVE ( 'NONE', #101, #105, #193, .T. ) ;
#51 = ORIENTED_EDGE ( 'NONE', *, *, #143, .F. ) ;
#52 = EDGE_LOOP ( 'NONE', ( #151, #81, #144, #141 ) ) ;
#53 = ORIENTED_EDGE ( 'NONE', *, *, #153, .F. ) ;
#54 = ORIENTED_EDGE ( 'NONE', *, *, #118, .T. ) ;
#55 = ORIENTED_EDGE ( 'NONE', *, *, #118, .F. ) ;
#56 = EDGE_LOOP ( 'NONE', ( #53, #55 ) ) ;
#57 = ORIENTED_EDGE ( 'NONE', *, *, #145, .F. ) ;
#58 = ORIENTED_EDGE ( 'NONE', *, *, #116, .T. ) ;
#59 = EDGE_CURVE ( 'NONE', #60, #78, #137, .T. ) ;
#60 = VERTEX_POINT ( 'NONE', #188 ) ;
#61 = ORIENTED_EDGE ( 'NONE', *, *, #59, .T. ) ;
#62 = ADVANCED_FACE ( 'NONE', ( #187 ), #103, .T. ) ;
#63 = ORIENTED_EDGE ( 'NONE', *, *, #116, .F. ) ;
#64 = ORIENTED_EDGE ( 'NONE', *, *, #82, .T. ) ;
#65 = ADVANCED_FACE ( 'NONE', ( #178, #177 ), #136, .F. ) ;
#66 = ORIENTED_EDGE ( 'NONE', *, *, #67, .T. ) ;
#67 = EDGE_CURVE ( 'NONE', #78, #60, #181, .T. ) ;
#68 = EDGE_LOOP ( 'NONE', ( #61, #66 ) ) ;
#69 = ADVANCED_FACE ( 'NONE', ( #162, #172 ), #173, .F. ) ;
#70 = ORIENTED_EDGE ( 'NONE', *, *, #138, .T. ) ;
#71 = EDGE_CURVE ( 'NONE', #122, #125, #253, .T. ) ;
#72 = EDGE_LOOP ( 'NONE', ( #70, #74 ) ) ;
#73 = ORIENTED_EDGE ( 'NONE', *, *, #152, .F. ) ;
#74 = ORIENTED_EDGE ( 'NONE', *, *, #145, .T. ) ;
#75 = ORIENTED_EDGE ( 'NONE', *, *, #140, .T. ) ;
#76 = EDGE_LOOP ( 'NONE', ( #63, #64, #84, #87 ) ) ;
#77 = ADVANCED_FACE ( 'NONE', ( #261 ), #345, .T. ) ;
#78 = VERTEX_POINT ( 'NONE', #340 ) ;
#79 = VERTEX_POINT ( 'NONE', #285 ) ;
#80 = EDGE_LOOP ( 'NONE', ( #115, #58, #142, #51 ) ) ;
#81 = ORIENTED_EDGE ( 'NONE', *, *, #152, .T. ) ;
#82 = EDGE_CURVE ( 'NONE', #105, #107, #289, .T. ) ;
#83 = EDGE_LOOP ( 'NONE', ( #96, #95 ) ) ;
#84 = ORIENTED_EDGE ( 'NONE', *, *, #143, .T. ) ;
#85 = EDGE_CURVE ( 'NONE', #109, #101, #254, .T. ) ;
#86 = EDGE_LOOP ( 'NONE', ( #92, #91 ) ) ;
#87 = ORIENTED_EDGE ( 'NONE', *, *, #67, .F. ) ;
#88 = ORIENTED_EDGE ( 'NONE', *, *, #50, .F. ) ;
#89 = ADVANCED_FACE ( 'NONE', ( #255, #273 ), #275, .F. ) ;
#90 = ORIENTED_EDGE ( 'NONE', *, *, #85, .F. ) ;
#91 = ORIENTED_EDGE ( 'NONE', *, *, #108, .T. ) ;
#92 = ORIENTED_EDGE ( 'NONE', *, *, #85, .T. ) ;
#93 = EDGE_LOOP ( 'NONE', ( #88, #90, #38, #39 ) ) ;
#94 = EDGE_CURVE ( 'NONE', #126, #19, #325, .T. ) ;
#95 = ORIENTED_EDGE ( 'NONE', *, *, #100, .T. ) ;
#96 = ORIENTED_EDGE ( 'NONE', *, *, #94, .T. ) ;
#97 = EDGE_LOOP ( 'NONE', ( #49, #110, #98, #102 ) ) ;
#98 = ORIENTED_EDGE ( 'NONE', *, *, #111, .F. ) ;
#99 = EDGE_LOOP ( 'NONE', ( #114, #135, #121, #119 ) ) ;
#100 = EDGE_CURVE ( 'NONE', #19, #126, #314, .T. ) ;
#101 = VERTEX_POINT ( 'NONE', #321 ) ;
#102 = ORIENTED_EDGE ( 'NONE', *, *, #112, .F. ) ;
#103 = CYLINDRICAL_SURFACE ( 'NONE', #182, 7.000000000000006200 ) ;
#104 = CONICAL_SURFACE ( 'NONE', #26, 7.000000000000006200, 0.7853981633974505000 ) ;
#105 = VERTEX_POINT ( 'NONE', #342 ) ;
#106 = ADVANCED_FACE ( 'NONE', ( #257 ), #277, .T. ) ;
#107 = VERTEX_POINT ( 'NONE', #315 ) ;
#108 = EDGE_CURVE ( 'NONE', #101, #109, #220, .T. ) ;
#109 = VERTEX_POINT ( 'NONE', #326 ) ;
#110 = ORIENTED_EDGE ( 'NONE', *, *, #50, .T. ) ;
#111 = EDGE_CURVE ( 'NONE', #107, #105, #210, .T. ) ;
#112 = EDGE_CURVE ( 'NONE', #109, #107, #209, .T. ) ;
#113 = ADVANCED_FACE ( 'NONE', ( #211 ), #222, .F. ) ;
#114 = ORIENTED_EDGE ( 'NONE', *, *, #100, .F. ) ;
#115 = ORIENTED_EDGE ( 'NONE', *, *, #111, .T. ) ;
#116 = EDGE_CURVE ( 'NONE', #105, #78, #196, .T. ) ;
#117 = ADVANCED_FACE ( 'NONE', ( #199 ), #197, .T. ) ;
#118 = EDGE_CURVE ( 'NONE', #155, #79, #200, .T. ) ;
#119 = ORIENTED_EDGE ( 'NONE', *, *, #123, .F. ) ;
#120 = EDGE_CURVE ( 'NONE', #19, #125, #224, .T. ) ;
#121 = ORIENTED_EDGE ( 'NONE', *, *, #124, .T. ) ;
#122 = VERTEX_POINT ( 'NONE', #337 ) ;
#123 = EDGE_CURVE ( 'NONE', #126, #122, #334, .T. ) ;
#124 = EDGE_CURVE ( 'NONE', #125, #122, #335, .T. ) ;
#125 = VERTEX_POINT ( 'NONE', #198 ) ;
#126 = VERTEX_POINT ( 'NONE', #250 ) ;
#127 = CALENDAR_DATE ( 2013, 28, 1 ) ;
#128 = LOCAL_TIME ( 12, 0, 25.00000000000000000, #129 ) ;
#129 = COORDINATED_UNIVERSAL_TIME_OFFSET ( 1, 0, .AHEAD. ) ;
#130 = APPROVAL_PERSON_ORGANIZATION ( #133, #132, #131 ) ;
#131 = APPROVAL_ROLE ( '' ) ;
#132 = APPROVAL ( #28, 'NON SPECIFICATO' ) ;
#133 = PERSON_AND_ORGANIZATION ( #292, #16 ) ;
#134 = CLOSED_SHELL ( 'NONE', ( #106, #113, #77, #149, #69, #117, #65, #62, #89, #44, #37 ) ) ;
#135 = ORIENTED_EDGE ( 'NONE', *, *, #120, .T. ) ;
#136 = PLANE ( 'NONE',  #189 ) ;
#137 = CIRCLE ( 'NONE', #185, 7.000000000000005300 ) ;
#138 = EDGE_CURVE ( 'NONE', #150, #147, #232, .T. ) ;
#139 = ORIENTED_EDGE ( 'NONE', *, *, #124, .F. ) ;
#140 = EDGE_CURVE ( 'NONE', #79, #150, #242, .T. ) ;
#141 = ORIENTED_EDGE ( 'NONE', *, *, #140, .F. ) ;
#142 = ORIENTED_EDGE ( 'NONE', *, *, #59, .F. ) ;
#143 = EDGE_CURVE ( 'NONE', #107, #60, #249, .T. ) ;
#144 = ORIENTED_EDGE ( 'NONE', *, *, #138, .F. ) ;
#145 = EDGE_CURVE ( 'NONE', #147, #150, #330, .T. ) ;
#146 = ORIENTED_EDGE ( 'NONE', *, *, #71, .F. ) ;
#147 = VERTEX_POINT ( 'NONE', #247 ) ;
#148 = EDGE_LOOP ( 'NONE', ( #73, #54, #75, #57 ) ) ;
#149 = ADVANCED_FACE ( 'NONE', ( #269 ), #238, .T. ) ;
#150 = VERTEX_POINT ( 'NONE', #307 ) ;
#151 = ORIENTED_EDGE ( 'NONE', *, *, #153, .T. ) ;
#152 = EDGE_CURVE ( 'NONE', #155, #147, #308, .T. ) ;
#153 = EDGE_CURVE ( 'NONE', #79, #155, #265, .T. ) ;
#154 = EDGE_LOOP ( 'NONE', ( #146, #139 ) ) ;
#155 = VERTEX_POINT ( 'NONE', #304 ) ;
#156 = APPLICATION_CONTEXT ( 'configuration controlled 3d designs of mechanical parts and assemblies' ) ;
#157 = DIRECTION ( 'NONE',  ( 1.109335647967046800E-031, 6.661338147750933300E-016, -1.000000000000000000 ) ) ;
#158 = LOCAL_TIME ( 12, 0, 25.00000000000000000, #159 ) ;
#159 = COORDINATED_UNIVERSAL_TIME_OFFSET ( 1, 0, .AHEAD. ) ;
#160 = CC_DESIGN_PERSON_AND_ORGANIZATION_ASSIGNMENT ( #33, #161, ( #166 ) ) ;
#161 = PERSON_AND_ORGANIZATION_ROLE ( 'creator' ) ;
#162 = FACE_BOUND ( 'NONE', #154, .T. ) ;
#163 = DIRECTION ( 'NONE',  ( 0.0000000000000000000, -6.661338147750933300E-016, 1.000000000000000000 ) ) ;
#164 = DIRECTION ( 'NONE',  ( -1.000000000000000000, -3.328006943901143600E-031, 1.725633230170963300E-031 ) ) ;
#165 = AXIS2_PLACEMENT_3D ( 'NONE', #174, #164, #163 ) ;
#166 = PRODUCT_DEFINITION ( 'NON CONOSCIUTO', '', #349, #167 ) ;
#167 = DESIGN_CONTEXT ( 'detailed design', #156, 'design' ) ;
#168 = DIRECTION ( 'NONE',  ( -1.109335647967046800E-031, -6.661338147750933300E-016, 1.000000000000000000 ) ) ;
#169 = DIRECTION ( 'NONE',  ( -1.000000000000000000, -3.328006943901141400E-031, -1.109335647967048900E-031 ) ) ;
#170 = CARTESIAN_POINT ( 'NONE',  ( 3.000000000000002700, 6.999999999999895200, 2.220446049250313100E-013 ) ) ;
#171 = AXIS2_PLACEMENT_3D ( 'NONE', #176, #175, #157 ) ;
#172 = FACE_OUTER_BOUND ( 'NONE', #72, .T. ) ;
#173 = PLANE ( 'NONE',  #171 ) ;
#174 = CARTESIAN_POINT ( 'NONE',  ( 3.000000000000002700, 0.0000000000000000000, 0.0000000000000000000 ) ) ;
#175 = DIRECTION ( 'NONE',  ( 1.000000000000000000, 3.328006943901141400E-031, 1.109335647967048900E-031 ) ) ;
#176 = CARTESIAN_POINT ( 'NONE',  ( 0.0000000000000000000, 8.999999999999563000, -2.220446049250313100E-013 ) ) ;
#177 = FACE_BOUND ( 'NONE', #68, .T. ) ;
#178 = FACE_OUTER_BOUND ( 'NONE', #56, .T. ) ;
#179 = DIRECTION ( 'NONE',  ( -1.000000000000000000, -3.328006943901143600E-031, 1.725633230170963300E-031 ) ) ;
#180 = CARTESIAN_POINT ( 'NONE',  ( 0.0000000000000000000, 0.0000000000000000000, 0.0000000000000000000 ) ) ;
#181 = CIRCLE ( 'NONE', #165, 7.000000000000005300 ) ;
#182 = AXIS2_PLACEMENT_3D ( 'NONE', #180, #179, #186 ) ;
#183 = DIRECTION ( 'NONE',  ( 0.0000000000000000000, -6.661338147750933300E-016, 1.000000000000000000 ) ) ;
#184 = DIRECTION ( 'NONE',  ( -1.000000000000000000, -3.328006943901143600E-031, 1.725633230170963300E-031 ) ) ;
#185 = AXIS2_PLACEMENT_3D ( 'NONE', #32, #184, #183 ) ;
#186 = DIRECTION ( 'NONE',  ( -1.109335647967047000E-031, -6.661338147750933300E-016, 1.000000000000000000 ) ) ;
#187 = FACE_OUTER_BOUND ( 'NONE', #76, .T. ) ;
#188 = CARTESIAN_POINT ( 'NONE',  ( 3.000000000000002700, -4.662936703425656700E-015, 7.000000000000005300 ) ) ;
#189 = AXIS2_PLACEMENT_3D ( 'NONE', #170, #169, #168 ) ;
#190 = DIRECTION ( 'NONE',  ( -0.7071067811865456900, 5.576233432286827200E-016, -0.7071067811865493500 ) ) ;
#191 = VECTOR ( 'NONE', #190, 1000.000000000000100 ) ;
#192 = CARTESIAN_POINT ( 'NONE',  ( 17.00000000000001400, 5.520189462828805100E-015, -7.000000000000006200 ) ) ;
#193 = LINE ( 'NONE', #192, #191 ) ;
#194 = VECTOR ( 'NONE', #234, 1000.000000000000000 ) ;
#195 = CARTESIAN_POINT ( 'NONE',  ( 7.765349535769331500E-031, 5.520189462828805100E-015, -7.000000000000006200 ) ) ;
#196 = LINE ( 'NONE', #195, #194 ) ;
#197 = CYLINDRICAL_SURFACE ( 'NONE', #206, 9.000000000000007100 ) ;
#198 = CARTESIAN_POINT ( 'NONE',  ( -6.988814582192410600E-031, 3.193823903493809300E-015, -4.049999999999999800 ) ) ;
#199 = FACE_OUTER_BOUND ( 'NONE', #148, .T. ) ;
#200 = CIRCLE ( 'NONE', #228, 9.000000000000007100 ) ;
#201 = DIRECTION ( 'NONE',  ( -1.000000000000000000, -3.328006943901143600E-031, 1.725633230170963300E-031 ) ) ;
#202 = DIRECTION ( 'NONE',  ( -0.7071067811865456900, -4.710277376051335600E-016, 0.7071067811865493500 ) ) ;
#203 = VECTOR ( 'NONE', #202, 1000.000000000000100 ) ;
#204 = CARTESIAN_POINT ( 'NONE',  ( 17.00000000000001400, -4.662936703425657500E-015, 7.000000000000006200 ) ) ;
#205 = AXIS2_PLACEMENT_3D ( 'NONE', #256, #201, #208 ) ;
#206 = AXIS2_PLACEMENT_3D ( 'NONE', #218, #230, #229 ) ;
#207 = DIRECTION ( 'NONE',  ( 0.0000000000000000000, -6.661338147750933300E-016, 1.000000000000000000 ) ) ;
#208 = DIRECTION ( 'NONE',  ( -1.109335647967046800E-031, -6.661338147750933300E-016, 1.000000000000000000 ) ) ;
#209 = LINE ( 'NONE', #204, #203 ) ;
#210 = CIRCLE ( 'NONE', #217, 7.000000000000006200 ) ;
#211 = FACE_OUTER_BOUND ( 'NONE', #99, .T. ) ;
#212 = DIRECTION ( 'NONE',  ( 0.0000000000000000000, -6.661338147750932300E-016, 1.000000000000000000 ) ) ;
#213 = DIRECTION ( 'NONE',  ( 1.000000000000000000, 3.328006943901143600E-031, -1.725633230170963300E-031 ) ) ;
#214 = CARTESIAN_POINT ( 'NONE',  ( 17.99999999999998900, 0.0000000000000000000, 0.0000000000000000000 ) ) ;
#215 = AXIS2_PLACEMENT_3D ( 'NONE', #214, #213, #212 ) ;
#216 = CARTESIAN_POINT ( 'NONE',  ( 17.00000000000001400, 0.0000000000000000000, 0.0000000000000000000 ) ) ;
#217 = AXIS2_PLACEMENT_3D ( 'NONE', #216, #221, #207 ) ;
#218 = CARTESIAN_POINT ( 'NONE',  ( 0.0000000000000000000, 0.0000000000000000000, 0.0000000000000000000 ) ) ;
#219 = DIRECTION ( 'NONE',  ( 0.0000000000000000000, -6.661338147750933300E-016, 1.000000000000000000 ) ) ;
#220 = CIRCLE ( 'NONE', #215, 6.000000000000010700 ) ;
#221 = DIRECTION ( 'NONE',  ( -1.000000000000000000, -3.328006943901143600E-031, 1.725633230170963300E-031 ) ) ;
#222 = CYLINDRICAL_SURFACE ( 'NONE', #205, 4.050000000000003400 ) ;
#223 = CARTESIAN_POINT ( 'NONE',  ( 4.492809374266541500E-031, 3.193823903493808900E-015, -4.050000000000003400 ) ) ;
#224 = LINE ( 'NONE', #223, #339 ) ;
#225 = DIRECTION ( 'NONE',  ( 0.0000000000000000000, -6.661338147750933300E-016, 1.000000000000000000 ) ) ;
#226 = DIRECTION ( 'NONE',  ( -1.000000000000000000, -3.328006943901143600E-031, 1.725633230170963300E-031 ) ) ;
#227 = CARTESIAN_POINT ( 'NONE',  ( 3.000000000000002700, 0.0000000000000000000, 0.0000000000000000000 ) ) ;
#228 = AXIS2_PLACEMENT_3D ( 'NONE', #227, #226, #225 ) ;
#229 = DIRECTION ( 'NONE',  ( -1.109335647967046800E-031, -6.661338147750933300E-016, 1.000000000000000000 ) ) ;
#230 = DIRECTION ( 'NONE',  ( -1.000000000000000000, -3.328006943901143600E-031, 1.725633230170963300E-031 ) ) ;
#231 = CARTESIAN_POINT ( 'NONE',  ( 0.0000000000000000000, 0.0000000000000000000, 0.0000000000000000000 ) ) ;
#232 = CIRCLE ( 'NONE', #246, 9.000000000000007100 ) ;
#233 = AXIS2_PLACEMENT_3D ( 'NONE', #328, #336, #252 ) ;
#234 = DIRECTION ( 'NONE',  ( -1.000000000000000000, -3.328006943901143600E-031, 1.725633230170963300E-031 ) ) ;
#235 = DIRECTION ( 'NONE',  ( -1.000000000000000000, -3.328006943901143600E-031, 1.725633230170963300E-031 ) ) ;
#236 = VECTOR ( 'NONE', #235, 1000.000000000000000 ) ;
#237 = CARTESIAN_POINT ( 'NONE',  ( -7.765349535769335000E-031, -4.662936703425657500E-015, 7.000000000000006200 ) ) ;
#238 = CYLINDRICAL_SURFACE ( 'NONE', #248, 9.000000000000007100 ) ;
#239 = AXIS2_PLACEMENT_3D ( 'NONE', #251, #267, #266 ) ;
#240 = DIRECTION ( 'NONE',  ( -1.000000000000000000, -3.328006943901143600E-031, 1.725633230170963300E-031 ) ) ;
#241 = VECTOR ( 'NONE', #240, 1000.000000000000000 ) ;
#242 = LINE ( 'NONE', #329, #241 ) ;
#243 = CARTESIAN_POINT ( 'NONE',  ( 3.000000000000002700, 0.0000000000000000000, 0.0000000000000000000 ) ) ;
#244 = DIRECTION ( 'NONE',  ( -1.109335647967046800E-031, -6.661338147750933300E-016, 1.000000000000000000 ) ) ;
#245 = DIRECTION ( 'NONE',  ( -1.000000000000000000, -3.328006943901143600E-031, 1.725633230170963300E-031 ) ) ;
#246 = AXIS2_PLACEMENT_3D ( 'NONE', #231, #245, #244 ) ;
#247 = CARTESIAN_POINT ( 'NONE',  ( -1.553069907153869100E-030, 7.097386452208455300E-015, -9.000000000000000000 ) ) ;
#248 = AXIS2_PLACEMENT_3D ( 'NONE', #268, #270, #263 ) ;
#249 = LINE ( 'NONE', #237, #236 ) ;
#250 = CARTESIAN_POINT ( 'NONE',  ( 17.99999999999998900, -2.697841949839130100E-015, 4.050000000000003400 ) ) ;
#251 = CARTESIAN_POINT ( 'NONE',  ( 0.0000000000000000000, 0.0000000000000000000, 0.0000000000000000000 ) ) ;
#252 = DIRECTION ( 'NONE',  ( -1.109335647967046800E-031, -6.661338147750933300E-016, 1.000000000000000000 ) ) ;
#253 = CIRCLE ( 'NONE', #295, 4.050000000000003400 ) ;
#254 = CIRCLE ( 'NONE', #287, 6.000000000000010700 ) ;
#255 = FACE_OUTER_BOUND ( 'NONE', #86, .T. ) ;
#256 = CARTESIAN_POINT ( 'NONE',  ( 0.0000000000000000000, 0.0000000000000000000, 0.0000000000000000000 ) ) ;
#257 = FACE_OUTER_BOUND ( 'NONE', #97, .T. ) ;
#258 = DIRECTION ( 'NONE',  ( 1.000000000000000000, 3.328006943901143600E-031, -1.725633230170963300E-031 ) ) ;
#259 = DIRECTION ( 'NONE',  ( 0.0000000000000000000, -6.661338147750933300E-016, 1.000000000000000000 ) ) ;
#260 = DIRECTION ( 'NONE',  ( -1.000000000000000000, -3.328006943901143600E-031, 1.725633230170963300E-031 ) ) ;
#261 = FACE_OUTER_BOUND ( 'NONE', #80, .T. ) ;
#262 = CARTESIAN_POINT ( 'NONE',  ( 9.984020831703425400E-031, 7.097386452208463200E-015, -9.000000000000007100 ) ) ;
#263 = DIRECTION ( 'NONE',  ( -1.109335647967046800E-031, -6.661338147750933300E-016, 1.000000000000000000 ) ) ;
#264 = DIRECTION ( 'NONE',  ( -1.000000000000000000, -3.328006943901143600E-031, 1.725633230170963300E-031 ) ) ;
#265 = CIRCLE ( 'NONE', #302, 9.000000000000007100 ) ;
#266 = DIRECTION ( 'NONE',  ( -1.109335647967046800E-031, -6.661338147750933300E-016, 1.000000000000000000 ) ) ;
#267 = DIRECTION ( 'NONE',  ( -1.000000000000000000, -3.328006943901143600E-031, 1.725633230170963300E-031 ) ) ;
#268 = CARTESIAN_POINT ( 'NONE',  ( 0.0000000000000000000, 0.0000000000000000000, 0.0000000000000000000 ) ) ;
#269 = FACE_OUTER_BOUND ( 'NONE', #52, .T. ) ;
#270 = DIRECTION ( 'NONE',  ( -1.000000000000000000, -3.328006943901143600E-031, 1.725633230170963300E-031 ) ) ;
#271 = AXIS2_PLACEMENT_3D ( 'NONE', #341, #260, #259 ) ;
#272 = CARTESIAN_POINT ( 'NONE',  ( 17.99999999999998900, 0.0000000000000000000, 0.0000000000000000000 ) ) ;
#273 = FACE_BOUND ( 'NONE', #83, .T. ) ;
#274 = AXIS2_PLACEMENT_3D ( 'NONE', #324, #323, #322 ) ;
#275 = PLANE ( 'NONE',  #274 ) ;
#276 = CARTESIAN_POINT ( 'NONE',  ( 17.99999999999998900, 0.0000000000000000000, 0.0000000000000000000 ) ) ;
#277 = CONICAL_SURFACE ( 'NONE', #316, 7.000000000000006200, 0.7853981633974505000 ) ;
#278 = DIRECTION ( 'NONE',  ( -1.109335647967046800E-031, -6.661338147750933300E-016, 1.000000000000000000 ) ) ;
#279 = DIRECTION ( 'NONE',  ( -1.000000000000000000, -3.328006943901143600E-031, 1.725633230170963300E-031 ) ) ;
#280 = AXIS2_PLACEMENT_3D ( 'NONE', #303, #281, #288 ) ;
#281 = DIRECTION ( 'NONE',  ( 0.0000000000000000000, 0.0000000000000000000, 1.000000000000000000 ) ) ;
#282 = APPLICATION_PROTOCOL_DEFINITION ( 'international standard', 'config_control_design', 1994, #283 ) ;
#283 = APPLICATION_CONTEXT ( 'configuration controlled 3d designs of mechanical parts and assemblies' ) ;
#284 = ADVANCED_BREP_SHAPE_REPRESENTATION ( '084.533.001', ( #48, #280 ), #296 ) ;
#285 = CARTESIAN_POINT ( 'NONE',  ( 3.000000000000002700, -5.995204332975844500E-015, 9.000000000000007100 ) ) ;
#286 = DIRECTION ( 'NONE',  ( -1.109335647967047000E-031, -6.661338147750933300E-016, 1.000000000000000000 ) ) ;
#287 = AXIS2_PLACEMENT_3D ( 'NONE', #272, #258, #327 ) ;
#288 = DIRECTION ( 'NONE',  ( 1.000000000000000000, 0.0000000000000000000, 0.0000000000000000000 ) ) ;
#289 = CIRCLE ( 'NONE', #271, 7.000000000000006200 ) ;
#290 = DIRECTION ( 'NONE',  ( -1.000000000000000000, -3.328006943901143600E-031, 1.725633230170963300E-031 ) ) ;
#291 = AXIS2_PLACEMENT_3D ( 'NONE', #344, #290, #286 ) ;
#292 = PERSON ( 'NON SPECIFICATO', 'NON SPECIFICATO', 'NON SPECIFICATO', ('NON SPECIFICATO'), ('NON SPECIFICATO'), ('NON SPECIFICATO') ) ;
#293 = PRODUCT ( '084.533.001', '084.533.001', '', ( #294 ) ) ;
#294 = MECHANICAL_CONTEXT ( 'NONE', #283, 'mechanical' ) ;
#295 = AXIS2_PLACEMENT_3D ( 'NONE', #343, #279, #278 ) ;
#296 =( GEOMETRIC_REPRESENTATION_CONTEXT ( 3 ) GLOBAL_UNCERTAINTY_ASSIGNED_CONTEXT ( ( #297 ) ) GLOBAL_UNIT_ASSIGNED_CONTEXT ( ( #300, #299, #298 ) ) REPRESENTATION_CONTEXT ( 'NONE', 'WORKASPACE' ) );
#297 = UNCERTAINTY_MEASURE_WITH_UNIT (LENGTH_MEASURE( 1.000000000000000100E-005 ), #300, 'distance_accuracy_value', 'NONE');
#298 =( NAMED_UNIT ( * ) SI_UNIT ( $, .STERADIAN. ) SOLID_ANGLE_UNIT ( ) );
#299 =( NAMED_UNIT ( * ) PLANE_ANGLE_UNIT ( ) SI_UNIT ( $, .RADIAN. ) );
#300 =( LENGTH_UNIT ( ) NAMED_UNIT ( * ) SI_UNIT ( .MILLI., .METRE. ) );
#301 = DIRECTION ( 'NONE',  ( 0.0000000000000000000, -6.661338147750933300E-016, 1.000000000000000000 ) ) ;
#302 = AXIS2_PLACEMENT_3D ( 'NONE', #243, #264, #301 ) ;
#303 = CARTESIAN_POINT ( 'NONE',  ( 0.0000000000000000000, 0.0000000000000000000, 0.0000000000000000000 ) ) ;
#304 = CARTESIAN_POINT ( 'NONE',  ( 3.000000000000002700, 7.097386452208455300E-015, -9.000000000000000000 ) ) ;
#305 = DIRECTION ( 'NONE',  ( -1.000000000000000000, -3.328006943901143600E-031, 1.725633230170963300E-031 ) ) ;
#306 = VECTOR ( 'NONE', #305, 1000.000000000000000 ) ;
#307 = CARTESIAN_POINT ( 'NONE',  ( -9.984020831703428900E-031, -5.995204332975844500E-015, 9.000000000000007100 ) ) ;
#308 = LINE ( 'NONE', #262, #306 ) ;
#309 = DIRECTION ( 'NONE',  ( -1.000000000000000000, -3.328006943901143600E-031, 1.725633230170963300E-031 ) ) ;
#310 = DIRECTION ( 'NONE',  ( 0.0000000000000000000, -6.661338147750933300E-016, 1.000000000000000000 ) ) ;
#311 = DIRECTION ( 'NONE',  ( -1.000000000000000000, -3.328006943901143600E-031, 1.725633230170963300E-031 ) ) ;
#312 = CARTESIAN_POINT ( 'NONE',  ( 17.99999999999998900, 0.0000000000000000000, 0.0000000000000000000 ) ) ;
#313 = AXIS2_PLACEMENT_3D ( 'NONE', #312, #311, #310 ) ;
#314 = CIRCLE ( 'NONE', #313, 4.050000000000003400 ) ;
#315 = CARTESIAN_POINT ( 'NONE',  ( 17.00000000000001400, -4.662936703425657500E-015, 7.000000000000006200 ) ) ;
#316 = AXIS2_PLACEMENT_3D ( 'NONE', #320, #309, #219 ) ;
#317 = DIRECTION ( 'NONE',  ( 0.0000000000000000000, -6.661338147750933300E-016, 1.000000000000000000 ) ) ;
#318 = DIRECTION ( 'NONE',  ( -1.000000000000000000, -3.328006943901143600E-031, 1.725633230170963300E-031 ) ) ;
#319 = AXIS2_PLACEMENT_3D ( 'NONE', #276, #318, #317 ) ;
#320 = CARTESIAN_POINT ( 'NONE',  ( 17.00000000000001400, 0.0000000000000000000, 0.0000000000000000000 ) ) ;
#321 = CARTESIAN_POINT ( 'NONE',  ( 17.99999999999998900, 5.125890215483892900E-015, -6.000000000000005300 ) ) ;
#322 = DIRECTION ( 'NONE',  ( -1.109335647967046800E-031, -6.661338147750933300E-016, 1.000000000000000000 ) ) ;
#323 = DIRECTION ( 'NONE',  ( -1.000000000000000000, -3.328006943901141400E-031, -1.109335647967048900E-031 ) ) ;
#324 = CARTESIAN_POINT ( 'NONE',  ( 17.99999999999998900, 4.049999999999776000, 0.0000000000000000000 ) ) ;
#325 = CIRCLE ( 'NONE', #319, 4.050000000000003400 ) ;
#326 = CARTESIAN_POINT ( 'NONE',  ( 17.99999999999998900, -3.996802888650566700E-015, 6.000000000000010700 ) ) ;
#327 = DIRECTION ( 'NONE',  ( 0.0000000000000000000, -6.661338147750932300E-016, 1.000000000000000000 ) ) ;
#328 = CARTESIAN_POINT ( 'NONE',  ( 0.0000000000000000000, 0.0000000000000000000, 0.0000000000000000000 ) ) ;
#329 = CARTESIAN_POINT ( 'NONE',  ( -9.984020831703428900E-031, -5.995204332975844500E-015, 9.000000000000007100 ) ) ;
#330 = CIRCLE ( 'NONE', #239, 9.000000000000007100 ) ;
#331 = DIRECTION ( 'NONE',  ( -1.000000000000000000, -3.328006943901143600E-031, 1.725633230170963300E-031 ) ) ;
#332 = VECTOR ( 'NONE', #331, 1000.000000000000000 ) ;
#333 = CARTESIAN_POINT ( 'NONE',  ( -4.492809374266543300E-031, -2.697841949839130100E-015, 4.050000000000003400 ) ) ;
#334 = LINE ( 'NONE', #333, #332 ) ;
#335 = CIRCLE ( 'NONE', #233, 4.050000000000003400 ) ;
#336 = DIRECTION ( 'NONE',  ( -1.000000000000000000, -3.328006943901143600E-031, 1.725633230170963300E-031 ) ) ;
#337 = CARTESIAN_POINT ( 'NONE',  ( -4.492809374266543300E-031, -2.697841949839130100E-015, 4.050000000000003400 ) ) ;
#338 = DIRECTION ( 'NONE',  ( -1.000000000000000000, -3.328006943901143600E-031, 1.725633230170963300E-031 ) ) ;
#339 = VECTOR ( 'NONE', #338, 1000.000000000000000 ) ;
#340 = CARTESIAN_POINT ( 'NONE',  ( 3.000000000000002700, 5.520189462828802700E-015, -6.999999999999999100 ) ) ;
#341 = CARTESIAN_POINT ( 'NONE',  ( 17.00000000000001400, 0.0000000000000000000, 0.0000000000000000000 ) ) ;
#342 = CARTESIAN_POINT ( 'NONE',  ( 17.00000000000001400, 5.520189462828803500E-015, -7.000000000000000000 ) ) ;
#343 = CARTESIAN_POINT ( 'NONE',  ( 0.0000000000000000000, 0.0000000000000000000, 0.0000000000000000000 ) ) ;
#344 = CARTESIAN_POINT ( 'NONE',  ( 0.0000000000000000000, 0.0000000000000000000, 0.0000000000000000000 ) ) ;
#345 = CYLINDRICAL_SURFACE ( 'NONE', #291, 7.000000000000006200 ) ;
#346 = PERSON_AND_ORGANIZATION ( #292, #16 ) ;
#347 = CC_DESIGN_APPROVAL ( #351, ( #349 ) ) ;
#348 = DATE_AND_TIME ( #350, #355 ) ;
#349 = PRODUCT_DEFINITION_FORMATION_WITH_SPECIFIED_SOURCE ( 'TUTTO', '', #293, .NOT_KNOWN. ) ;
#350 = CALENDAR_DATE ( 2013, 28, 1 ) ;
#351 = APPROVAL ( #353, 'NON SPECIFICATO' ) ;
#352 = PERSON_AND_ORGANIZATION ( #292, #16 ) ;
#353 = APPROVAL_STATUS ( 'not_yet_approved' ) ;
#354 = APPROVAL_ROLE ( '' ) ;
#355 = LOCAL_TIME ( 12, 0, 25.00000000000000000, #356 ) ;
#356 = COORDINATED_UNIVERSAL_TIME_OFFSET ( 1, 0, .AHEAD. ) ;
#357 = PERSON_AND_ORGANIZATION ( #292, #16 ) ;
#358 = CC_DESIGN_DATE_AND_TIME_ASSIGNMENT ( #360, #359, ( #373 ) ) ;
#359 = DATE_TIME_ROLE ( 'classification_date' ) ;
#360 = DATE_AND_TIME ( #361, #362 ) ;
#361 = CALENDAR_DATE ( 2013, 28, 1 ) ;
#362 = LOCAL_TIME ( 12, 0, 25.00000000000000000, #363 ) ;
#363 = COORDINATED_UNIVERSAL_TIME_OFFSET ( 1, 0, .AHEAD. ) ;
#364 = CC_DESIGN_PERSON_AND_ORGANIZATION_ASSIGNMENT ( #352, #365, ( #349 ) ) ;
#365 = PERSON_AND_ORGANIZATION_ROLE ( 'creator' ) ;
#366 = APPROVAL_PERSON_ORGANIZATION ( #346, #351, #354 ) ;
#367 = CC_DESIGN_PERSON_AND_ORGANIZATION_ASSIGNMENT ( #369, #368, ( #349 ) ) ;
#368 = PERSON_AND_ORGANIZATION_ROLE ( 'design_supplier' ) ;
#369 = PERSON_AND_ORGANIZATION ( #292, #16 ) ;
#370 = CC_DESIGN_PERSON_AND_ORGANIZATION_ASSIGNMENT ( #372, #371, ( #373 ) ) ;
#371 = PERSON_AND_ORGANIZATION_ROLE ( 'classification_officer' ) ;
#372 = PERSON_AND_ORGANIZATION ( #292, #16 ) ;
#373 = SECURITY_CLASSIFICATION ( '', '', #374 ) ;
#374 = SECURITY_CLASSIFICATION_LEVEL ( 'unclassified' ) ;
#375 = APPROVAL_DATE_TIME ( #348, #351 ) ;
#376 = PRODUCT_DEFINITION_SHAPE ( 'NONE', 'NONE',  #166 ) ;
#377 = CC_DESIGN_SECURITY_CLASSIFICATION ( #373, ( #349 ) ) ;
#378 = PRODUCT_RELATED_PRODUCT_CATEGORY ( 'detail', '', ( #293 ) ) ;
#379 = SHAPE_DEFINITION_REPRESENTATION ( #376, #284 ) ;
ENDSEC;
END-ISO-10303-21;
