ISO-10303-21;
HEADER;
FILE_DESCRIPTION (( 'STEP AP203' ),
    '1' );
FILE_NAME ('084.528.002.STEP',
    '2013-01-28T10:54:44',
    ( 'Alusic' ),
    ( 'Alusic' ),
    'SwSTEP 2.0',
    'SolidWorks 2011',
    '' );
FILE_SCHEMA (( 'CONFIG_CONTROL_DESIGN' ));
ENDSEC;

DATA;
#1 = ORIENTED_EDGE ( 'NONE', *, *, #30, .F. ) ;
#2 = VERTEX_POINT ( 'NONE', #163 ) ;
#3 = APPLICATION_CONTEXT ( 'configuration controlled 3d designs of mechanical parts and assemblies' ) ;
#4 = ORIENTED_EDGE ( 'NONE', *, *, #59, .T. ) ;
#5 = VERTEX_POINT ( 'NONE', #208 ) ;
#6 = EDGE_CURVE ( 'NONE', #52, #5, #167, .T. ) ;
#7 = ORIENTED_EDGE ( 'NONE', *, *, #11, .F. ) ;
#8 = EDGE_CURVE ( 'NONE', #5, #2, #175, .T. ) ;
#9 = EDGE_CURVE ( 'NONE', #55, #52, #117, .T. ) ;
#10 = EDGE_CURVE ( 'NONE', #55, #2, #161, .T. ) ;
#11 = EDGE_CURVE ( 'NONE', #62, #17, #90, .T. ) ;
#12 = CLOSED_SHELL ( 'NONE', ( #56, #67, #41, #58, #20, #45, #28, #190, #200 ) ) ;
#13 = APPLICATION_PROTOCOL_DEFINITION ( 'international standard', 'config_control_design', 1994, #3 ) ;
#14 = ORIENTED_EDGE ( 'NONE', *, *, #66, .T. ) ;
#15 = EDGE_LOOP ( 'NONE', ( #70, #132, #14, #173 ) ) ;
#16 = ORIENTED_EDGE ( 'NONE', *, *, #25, .T. ) ;
#17 = VERTEX_POINT ( 'NONE', #119 ) ;
#18 = PRODUCT_DEFINITION ( 'NON CONOSCIUTO', '', #264, #19 ) ;
#19 = DESIGN_CONTEXT ( 'detailed design', #3, 'design' ) ;
#20 = ADVANCED_FACE ( 'NONE', ( #185 ), #129, .T. ) ;
#21 = EDGE_LOOP ( 'NONE', ( #44, #36 ) ) ;
#22 = ORIENTED_EDGE ( 'NONE', *, *, #23, .F. ) ;
#23 = EDGE_CURVE ( 'NONE', #34, #71, #160, .T. ) ;
#24 = ORGANIZATION ( 'NON SPECIFICATO', 'NON SPECIFICATO', '' ) ;
#25 = EDGE_CURVE ( 'NONE', #71, #34, #108, .T. ) ;
#26 = EDGE_CURVE ( 'NONE', #77, #43, #110, .T. ) ;
#27 = ORIENTED_EDGE ( 'NONE', *, *, #9, .T. ) ;
#28 = ADVANCED_FACE ( 'NONE', ( #155 ), #191, .T. ) ;
#29 = ORIENTED_EDGE ( 'NONE', *, *, #26, .T. ) ;
#30 = EDGE_CURVE ( 'NONE', #43, #62, #133, .T. ) ;
#31 = EDGE_LOOP ( 'NONE', ( #22, #40, #51, #64 ) ) ;
#32 = PERSON_AND_ORGANIZATION ( #212, #24 ) ;
#33 = CC_DESIGN_PERSON_AND_ORGANIZATION_ASSIGNMENT ( #32, #72, ( #213 ) ) ;
#34 = VERTEX_POINT ( 'NONE', #179 ) ;
#35 = ORIENTED_EDGE ( 'NONE', *, *, #11, .T. ) ;
#36 = ORIENTED_EDGE ( 'NONE', *, *, #59, .F. ) ;
#37 = EDGE_LOOP ( 'NONE', ( #1, #4, #49, #7 ) ) ;
#38 = ORIENTED_EDGE ( 'NONE', *, *, #8, .F. ) ;
#39 = EDGE_LOOP ( 'NONE', ( #29, #63, #73, #79 ) ) ;
#40 = ORIENTED_EDGE ( 'NONE', *, *, #131, .T. ) ;
#41 = ADVANCED_FACE ( 'NONE', ( #130 ), #168, .T. ) ;
#42 = EDGE_CURVE ( 'NONE', #77, #17, #125, .T. ) ;
#43 = VERTEX_POINT ( 'NONE', #196 ) ;
#44 = ORIENTED_EDGE ( 'NONE', *, *, #26, .F. ) ;
#45 = ADVANCED_FACE ( 'NONE', ( #195, #198 ), #123, .F. ) ;
#46 = EDGE_CURVE ( 'NONE', #2, #5, #149, .T. ) ;
#47 = EDGE_LOOP ( 'NONE', ( #50, #57 ) ) ;
#48 = ORIENTED_EDGE ( 'NONE', *, *, #6, .F. ) ;
#49 = ORIENTED_EDGE ( 'NONE', *, *, #42, .T. ) ;
#50 = ORIENTED_EDGE ( 'NONE', *, *, #8, .T. ) ;
#51 = ORIENTED_EDGE ( 'NONE', *, *, #65, .F. ) ;
#52 = VERTEX_POINT ( 'NONE', #159 ) ;
#53 = EDGE_LOOP ( 'NONE', ( #54, #69, #38, #48 ) ) ;
#54 = ORIENTED_EDGE ( 'NONE', *, *, #65, .T. ) ;
#55 = VERTEX_POINT ( 'NONE', #152 ) ;
#56 = ADVANCED_FACE ( 'NONE', ( #122 ), #113, .T. ) ;
#57 = ORIENTED_EDGE ( 'NONE', *, *, #46, .T. ) ;
#58 = ADVANCED_FACE ( 'NONE', ( #188 ), #84, .F. ) ;
#59 = EDGE_CURVE ( 'NONE', #43, #77, #105, .T. ) ;
#60 = EDGE_LOOP ( 'NONE', ( #74, #27, #75, #68 ) ) ;
#61 = EDGE_LOOP ( 'NONE', ( #78, #35 ) ) ;
#62 = VERTEX_POINT ( 'NONE', #189 ) ;
#63 = ORIENTED_EDGE ( 'NONE', *, *, #30, .T. ) ;
#64 = ORIENTED_EDGE ( 'NONE', *, *, #66, .F. ) ;
#65 = EDGE_CURVE ( 'NONE', #52, #55, #144, .T. ) ;
#66 = EDGE_CURVE ( 'NONE', #71, #52, #254, .T. ) ;
#67 = ADVANCED_FACE ( 'NONE', ( #224 ), #230, .T. ) ;
#68 = ORIENTED_EDGE ( 'NONE', *, *, #46, .F. ) ;
#69 = ORIENTED_EDGE ( 'NONE', *, *, #10, .T. ) ;
#70 = ORIENTED_EDGE ( 'NONE', *, *, #131, .F. ) ;
#71 = VERTEX_POINT ( 'NONE', #250 ) ;
#72 = PERSON_AND_ORGANIZATION_ROLE ( 'design_owner' ) ;
#73 = ORIENTED_EDGE ( 'NONE', *, *, #76, .F. ) ;
#74 = ORIENTED_EDGE ( 'NONE', *, *, #10, .F. ) ;
#75 = ORIENTED_EDGE ( 'NONE', *, *, #6, .T. ) ;
#76 = EDGE_CURVE ( 'NONE', #17, #62, #249, .T. ) ;
#77 = VERTEX_POINT ( 'NONE', #218 ) ;
#78 = ORIENTED_EDGE ( 'NONE', *, *, #76, .T. ) ;
#79 = ORIENTED_EDGE ( 'NONE', *, *, #42, .F. ) ;
#80 = DIRECTION ( 'NONE',  ( 0.0000000000000000000, 0.0000000000000000000, -1.000000000000000000 ) ) ;
#81 = DIRECTION ( 'NONE',  ( 1.000000000000000000, 0.0000000000000000000, 0.0000000000000000000 ) ) ;
#82 = CARTESIAN_POINT ( 'NONE',  ( 0.0000000000000000000, 0.0000000000000000000, 0.0000000000000000000 ) ) ;
#83 = AXIS2_PLACEMENT_3D ( 'NONE', #82, #81, #80 ) ;
#84 = PLANE ( 'NONE',  #83 ) ;
#85 = PERSON_AND_ORGANIZATION_ROLE ( 'creator' ) ;
#86 = APPROVAL_PERSON_ORGANIZATION ( #87, #111, #114 ) ;
#87 = PERSON_AND_ORGANIZATION ( #212, #24 ) ;
#88 = APPROVAL_STATUS ( 'not_yet_approved' ) ;
#89 = CARTESIAN_POINT ( 'NONE',  ( 0.0000000000000000000, 4.898587196589412800E-016, -4.000000000000000000 ) ) ;
#90 = CIRCLE ( 'NONE', #135, 6.000000000000000000 ) ;
#91 = DIRECTION ( 'NONE',  ( -1.000000000000000000, -0.0000000000000000000, -0.0000000000000000000 ) ) ;
#92 = DIRECTION ( 'NONE',  ( 0.0000000000000000000, 0.0000000000000000000, 1.000000000000000000 ) ) ;
#93 = DIRECTION ( 'NONE',  ( -1.000000000000000000, -0.0000000000000000000, -0.0000000000000000000 ) ) ;
#94 = CARTESIAN_POINT ( 'NONE',  ( 33.99999999999997200, 0.0000000000000000000, 0.0000000000000000000 ) ) ;
#95 = AXIS2_PLACEMENT_3D ( 'NONE', #94, #93, #92 ) ;
#96 = CC_DESIGN_APPROVAL ( #111, ( #18 ) ) ;
#97 = APPROVAL_DATE_TIME ( #98, #111 ) ;
#98 = DATE_AND_TIME ( #99, #100 ) ;
#99 = CALENDAR_DATE ( 2013, 28, 1 ) ;
#100 = LOCAL_TIME ( 11, 54, 44.00000000000000000, #106 ) ;
#101 = DIRECTION ( 'NONE',  ( 0.0000000000000000000, 0.0000000000000000000, 1.000000000000000000 ) ) ;
#102 = DIRECTION ( 'NONE',  ( -1.000000000000000000, -0.0000000000000000000, -0.0000000000000000000 ) ) ;
#103 = CARTESIAN_POINT ( 'NONE',  ( 1.500000000000001300, 0.0000000000000000000, 0.0000000000000000000 ) ) ;
#104 = AXIS2_PLACEMENT_3D ( 'NONE', #103, #102, #101 ) ;
#105 = CIRCLE ( 'NONE', #104, 6.000000000000000000 ) ;
#106 = COORDINATED_UNIVERSAL_TIME_OFFSET ( 1, 0, .AHEAD. ) ;
#107 = CARTESIAN_POINT ( 'NONE',  ( 35.00000000000000000, 0.0000000000000000000, 0.0000000000000000000 ) ) ;
#108 = CIRCLE ( 'NONE', #109, 3.675080303767090500 ) ;
#109 = AXIS2_PLACEMENT_3D ( 'NONE', #139, #151, #150 ) ;
#110 = CIRCLE ( 'NONE', #138, 6.000000000000000000 ) ;
#111 = APPROVAL ( #88, 'NON SPECIFICATO' ) ;
#112 = DIRECTION ( 'NONE',  ( -0.0000000000000000000, 0.0000000000000000000, 1.000000000000000000 ) ) ;
#113 = CONICAL_SURFACE ( 'NONE', #187, 4.000000000000000000, 0.3141592653589740400 ) ;
#114 = APPROVAL_ROLE ( '' ) ;
#115 = AXIS2_PLACEMENT_3D ( 'NONE', #158, #116, #137 ) ;
#116 = DIRECTION ( 'NONE',  ( -1.000000000000000000, -0.0000000000000000000, -0.0000000000000000000 ) ) ;
#117 = CIRCLE ( 'NONE', #118, 4.000000000000000000 ) ;
#118 = AXIS2_PLACEMENT_3D ( 'NONE', #172, #162, #201 ) ;
#119 = CARTESIAN_POINT ( 'NONE',  ( 0.0000000000000000000, 0.0000000000000000000, 6.000000000000000000 ) ) ;
#120 = MANIFOLD_SOLID_BREP ( 'Smusso1', #12 ) ;
#121 = DIRECTION ( 'NONE',  ( 0.0000000000000000000, 0.0000000000000000000, 1.000000000000000000 ) ) ;
#122 = FACE_OUTER_BOUND ( 'NONE', #31, .T. ) ;
#123 = PLANE ( 'NONE',  #169 ) ;
#124 = VECTOR ( 'NONE', #156, 1000.000000000000000 ) ;
#125 = LINE ( 'NONE', #197, #124 ) ;
#126 = AXIS2_PLACEMENT_3D ( 'NONE', #204, #203, #202 ) ;
#127 = CARTESIAN_POINT ( 'NONE',  ( 0.0000000000000000000, 0.0000000000000000000, 0.0000000000000000000 ) ) ;
#128 = DIRECTION ( 'NONE',  ( -1.000000000000000000, -0.0000000000000000000, -0.0000000000000000000 ) ) ;
#129 = CYLINDRICAL_SURFACE ( 'NONE', #141, 6.000000000000000000 ) ;
#130 = FACE_OUTER_BOUND ( 'NONE', #39, .T. ) ;
#131 = EDGE_CURVE ( 'NONE', #34, #55, #225, .T. ) ;
#132 = ORIENTED_EDGE ( 'NONE', *, *, #25, .F. ) ;
#133 = LINE ( 'NONE', #182, #181 ) ;
#134 = DIRECTION ( 'NONE',  ( -1.000000000000000000, -0.0000000000000000000, -0.0000000000000000000 ) ) ;
#135 = AXIS2_PLACEMENT_3D ( 'NONE', #127, #134, #143 ) ;
#136 = CARTESIAN_POINT ( 'NONE',  ( 1.500000000000001300, 0.0000000000000000000, 0.0000000000000000000 ) ) ;
#137 = DIRECTION ( 'NONE',  ( 0.0000000000000000000, 0.0000000000000000000, 1.000000000000000000 ) ) ;
#138 = AXIS2_PLACEMENT_3D ( 'NONE', #136, #128, #157 ) ;
#139 = CARTESIAN_POINT ( 'NONE',  ( 35.00000000000000000, 0.0000000000000000000, 0.0000000000000000000 ) ) ;
#140 = DIRECTION ( 'NONE',  ( 0.0000000000000000000, 0.0000000000000000000, 1.000000000000000000 ) ) ;
#141 = AXIS2_PLACEMENT_3D ( 'NONE', #142, #154, #153 ) ;
#142 = CARTESIAN_POINT ( 'NONE',  ( 0.0000000000000000000, 0.0000000000000000000, 0.0000000000000000000 ) ) ;
#143 = DIRECTION ( 'NONE',  ( 0.0000000000000000000, 0.0000000000000000000, 1.000000000000000000 ) ) ;
#144 = CIRCLE ( 'NONE', #95, 4.000000000000000000 ) ;
#145 = DIRECTION ( 'NONE',  ( 0.0000000000000000000, 0.0000000000000000000, 1.000000000000000000 ) ) ;
#146 = DIRECTION ( 'NONE',  ( -1.000000000000000000, -0.0000000000000000000, -0.0000000000000000000 ) ) ;
#147 = CARTESIAN_POINT ( 'NONE',  ( 1.500000000000001300, 0.0000000000000000000, 0.0000000000000000000 ) ) ;
#148 = AXIS2_PLACEMENT_3D ( 'NONE', #147, #146, #145 ) ;
#149 = CIRCLE ( 'NONE', #148, 4.000000000000000000 ) ;
#150 = DIRECTION ( 'NONE',  ( 0.0000000000000000000, 0.0000000000000000000, 1.000000000000000000 ) ) ;
#151 = DIRECTION ( 'NONE',  ( 1.000000000000000000, 0.0000000000000000000, 0.0000000000000000000 ) ) ;
#152 = CARTESIAN_POINT ( 'NONE',  ( 33.99999999999997200, 4.898587196589412800E-016, -4.000000000000000000 ) ) ;
#153 = DIRECTION ( 'NONE',  ( 0.0000000000000000000, 0.0000000000000000000, 1.000000000000000000 ) ) ;
#154 = DIRECTION ( 'NONE',  ( -1.000000000000000000, -0.0000000000000000000, -0.0000000000000000000 ) ) ;
#155 = FACE_OUTER_BOUND ( 'NONE', #60, .T. ) ;
#156 = DIRECTION ( 'NONE',  ( -1.000000000000000000, -0.0000000000000000000, -0.0000000000000000000 ) ) ;
#157 = DIRECTION ( 'NONE',  ( 0.0000000000000000000, 0.0000000000000000000, 1.000000000000000000 ) ) ;
#158 = CARTESIAN_POINT ( 'NONE',  ( 0.0000000000000000000, 0.0000000000000000000, 0.0000000000000000000 ) ) ;
#159 = CARTESIAN_POINT ( 'NONE',  ( 33.99999999999997200, 0.0000000000000000000, 4.000000000000000000 ) ) ;
#160 = CIRCLE ( 'NONE', #199, 3.675080303767090500 ) ;
#161 = LINE ( 'NONE', #89, #207 ) ;
#162 = DIRECTION ( 'NONE',  ( -1.000000000000000000, -0.0000000000000000000, -0.0000000000000000000 ) ) ;
#163 = CARTESIAN_POINT ( 'NONE',  ( 1.500000000000001300, 4.898587196589412800E-016, -4.000000000000000000 ) ) ;
#164 = EDGE_LOOP ( 'NONE', ( #16, #205 ) ) ;
#165 = VECTOR ( 'NONE', #91, 1000.000000000000000 ) ;
#166 = CARTESIAN_POINT ( 'NONE',  ( 0.0000000000000000000, 0.0000000000000000000, 4.000000000000000000 ) ) ;
#167 = LINE ( 'NONE', #166, #165 ) ;
#168 = CYLINDRICAL_SURFACE ( 'NONE', #170, 6.000000000000000000 ) ;
#169 = AXIS2_PLACEMENT_3D ( 'NONE', #184, #183, #112 ) ;
#170 = AXIS2_PLACEMENT_3D ( 'NONE', #194, #193, #192 ) ;
#171 = DIRECTION ( 'NONE',  ( 1.000000000000000000, 0.0000000000000000000, 0.0000000000000000000 ) ) ;
#172 = CARTESIAN_POINT ( 'NONE',  ( 33.99999999999997200, 0.0000000000000000000, 0.0000000000000000000 ) ) ;
#173 = ORIENTED_EDGE ( 'NONE', *, *, #9, .F. ) ;
#174 = DIRECTION ( 'NONE',  ( -1.000000000000000000, -0.0000000000000000000, -0.0000000000000000000 ) ) ;
#175 = CIRCLE ( 'NONE', #126, 4.000000000000000000 ) ;
#176 = DATE_AND_TIME ( #265, #266 ) ;
#177 = CC_DESIGN_PERSON_AND_ORGANIZATION_ASSIGNMENT ( #178, #85, ( #18 ) ) ;
#178 = PERSON_AND_ORGANIZATION ( #212, #24 ) ;
#179 = CARTESIAN_POINT ( 'NONE',  ( 35.00000000000000000, 4.699631263603632000E-016, -3.675080303767090500 ) ) ;
#180 = DIRECTION ( 'NONE',  ( -1.000000000000000000, -0.0000000000000000000, -0.0000000000000000000 ) ) ;
#181 = VECTOR ( 'NONE', #180, 1000.000000000000000 ) ;
#182 = CARTESIAN_POINT ( 'NONE',  ( 0.0000000000000000000, 7.347880794884119700E-016, -6.000000000000000000 ) ) ;
#183 = DIRECTION ( 'NONE',  ( -1.000000000000000000, 0.0000000000000000000, -0.0000000000000000000 ) ) ;
#184 = CARTESIAN_POINT ( 'NONE',  ( 1.500000000000001300, 6.000000000000005300, 0.0000000000000000000 ) ) ;
#185 = FACE_OUTER_BOUND ( 'NONE', #37, .T. ) ;
#186 = CARTESIAN_POINT ( 'NONE',  ( 33.99999999999997200, 0.0000000000000000000, 0.0000000000000000000 ) ) ;
#187 = AXIS2_PLACEMENT_3D ( 'NONE', #186, #174, #121 ) ;
#188 = FACE_OUTER_BOUND ( 'NONE', #61, .T. ) ;
#189 = CARTESIAN_POINT ( 'NONE',  ( 0.0000000000000000000, 7.347880794884119700E-016, -6.000000000000000000 ) ) ;
#190 = ADVANCED_FACE ( 'NONE', ( #247 ), #219, .F. ) ;
#191 = CYLINDRICAL_SURFACE ( 'NONE', #115, 4.000000000000000000 ) ;
#192 = DIRECTION ( 'NONE',  ( 0.0000000000000000000, 0.0000000000000000000, 1.000000000000000000 ) ) ;
#193 = DIRECTION ( 'NONE',  ( -1.000000000000000000, -0.0000000000000000000, -0.0000000000000000000 ) ) ;
#194 = CARTESIAN_POINT ( 'NONE',  ( 0.0000000000000000000, 0.0000000000000000000, 0.0000000000000000000 ) ) ;
#195 = FACE_OUTER_BOUND ( 'NONE', #21, .T. ) ;
#196 = CARTESIAN_POINT ( 'NONE',  ( 1.500000000000001300, 7.347880794884119700E-016, -6.000000000000000000 ) ) ;
#197 = CARTESIAN_POINT ( 'NONE',  ( 0.0000000000000000000, 0.0000000000000000000, 6.000000000000000000 ) ) ;
#198 = FACE_BOUND ( 'NONE', #47, .T. ) ;
#199 = AXIS2_PLACEMENT_3D ( 'NONE', #107, #171, #140 ) ;
#200 = ADVANCED_FACE ( 'NONE', ( #231 ), #222, .T. ) ;
#201 = DIRECTION ( 'NONE',  ( 0.0000000000000000000, 0.0000000000000000000, 1.000000000000000000 ) ) ;
#202 = DIRECTION ( 'NONE',  ( 0.0000000000000000000, 0.0000000000000000000, 1.000000000000000000 ) ) ;
#203 = DIRECTION ( 'NONE',  ( -1.000000000000000000, -0.0000000000000000000, -0.0000000000000000000 ) ) ;
#204 = CARTESIAN_POINT ( 'NONE',  ( 1.500000000000001300, 0.0000000000000000000, 0.0000000000000000000 ) ) ;
#205 = ORIENTED_EDGE ( 'NONE', *, *, #23, .T. ) ;
#206 = DIRECTION ( 'NONE',  ( -1.000000000000000000, -0.0000000000000000000, -0.0000000000000000000 ) ) ;
#207 = VECTOR ( 'NONE', #206, 1000.000000000000000 ) ;
#208 = CARTESIAN_POINT ( 'NONE',  ( 1.500000000000001300, 0.0000000000000000000, 4.000000000000000000 ) ) ;
#209 = CARTESIAN_POINT ( 'NONE',  ( 33.99999999999997200, 0.0000000000000000000, 0.0000000000000000000 ) ) ;
#210 = CARTESIAN_POINT ( 'NONE',  ( 0.0000000000000000000, 0.0000000000000000000, 0.0000000000000000000 ) ) ;
#211 =( GEOMETRIC_REPRESENTATION_CONTEXT ( 3 ) GLOBAL_UNCERTAINTY_ASSIGNED_CONTEXT ( ( #255 ) ) GLOBAL_UNIT_ASSIGNED_CONTEXT ( ( #228, #251, #256 ) ) REPRESENTATION_CONTEXT ( 'NONE', 'WORKASPACE' ) );
#212 = PERSON ( 'NON SPECIFICATO', 'NON SPECIFICATO', 'NON SPECIFICATO', ('NON SPECIFICATO'), ('NON SPECIFICATO'), ('NON SPECIFICATO') ) ;
#213 = PRODUCT ( '084.528.002', '084.528.002', '', ( #214 ) ) ;
#214 = MECHANICAL_CONTEXT ( 'NONE', #243, 'mechanical' ) ;
#215 = APPLICATION_PROTOCOL_DEFINITION ( 'international standard', 'config_control_design', 1994, #243 ) ;
#216 = DIRECTION ( 'NONE',  ( 1.000000000000000000, 0.0000000000000000000, 0.0000000000000000000 ) ) ;
#217 = DIRECTION ( 'NONE',  ( 0.0000000000000000000, 0.0000000000000000000, 1.000000000000000000 ) ) ;
#218 = CARTESIAN_POINT ( 'NONE',  ( 1.500000000000001300, 0.0000000000000000000, 6.000000000000000000 ) ) ;
#219 = PLANE ( 'NONE',  #232 ) ;
#220 = DIRECTION ( 'NONE',  ( 0.0000000000000000000, 0.0000000000000000000, 1.000000000000000000 ) ) ;
#221 = DIRECTION ( 'NONE',  ( -1.000000000000000000, -0.0000000000000000000, -0.0000000000000000000 ) ) ;
#222 = CONICAL_SURFACE ( 'NONE', #240, 4.000000000000000000, 0.3141592653589740400 ) ;
#223 = CARTESIAN_POINT ( 'NONE',  ( 0.0000000000000000000, 0.0000000000000000000, 0.0000000000000000000 ) ) ;
#224 = FACE_OUTER_BOUND ( 'NONE', #53, .T. ) ;
#225 = LINE ( 'NONE', #253, #252 ) ;
#226 = DIRECTION ( 'NONE',  ( 0.0000000000000000000, 0.0000000000000000000, 1.000000000000000000 ) ) ;
#227 = DIRECTION ( 'NONE',  ( -1.000000000000000000, -0.0000000000000000000, -0.0000000000000000000 ) ) ;
#228 =( LENGTH_UNIT ( ) NAMED_UNIT ( * ) SI_UNIT ( .MILLI., .METRE. ) );
#229 = AXIS2_PLACEMENT_3D ( 'NONE', #210, #217, #216 ) ;
#230 = CYLINDRICAL_SURFACE ( 'NONE', #248, 4.000000000000000000 ) ;
#231 = FACE_OUTER_BOUND ( 'NONE', #15, .T. ) ;
#232 = AXIS2_PLACEMENT_3D ( 'NONE', #239, #238, #246 ) ;
#233 = CARTESIAN_POINT ( 'NONE',  ( 0.0000000000000000000, 0.0000000000000000000, 0.0000000000000000000 ) ) ;
#234 = DIRECTION ( 'NONE',  ( -0.9510565162951552000, 0.0000000000000000000, 0.3090169943749423400 ) ) ;
#235 = AXIS2_PLACEMENT_3D ( 'NONE', #233, #221, #220 ) ;
#236 = DIRECTION ( 'NONE',  ( -0.9510565162951552000, 3.784366730434088300E-017, -0.3090169943749423400 ) ) ;
#237 = VECTOR ( 'NONE', #234, 1000.000000000000100 ) ;
#238 = DIRECTION ( 'NONE',  ( -1.000000000000000000, 0.0000000000000000000, -0.0000000000000000000 ) ) ;
#239 = CARTESIAN_POINT ( 'NONE',  ( 35.00000000000000000, 4.000000000000003600, 0.0000000000000000000 ) ) ;
#240 = AXIS2_PLACEMENT_3D ( 'NONE', #209, #245, #242 ) ;
#241 = CARTESIAN_POINT ( 'NONE',  ( 33.99999999999997200, 0.0000000000000000000, 4.000000000000000000 ) ) ;
#242 = DIRECTION ( 'NONE',  ( 0.0000000000000000000, 0.0000000000000000000, 1.000000000000000000 ) ) ;
#243 = APPLICATION_CONTEXT ( 'configuration controlled 3d designs of mechanical parts and assemblies' ) ;
#244 = ADVANCED_BREP_SHAPE_REPRESENTATION ( '084.528.002', ( #120, #229 ), #211 ) ;
#245 = DIRECTION ( 'NONE',  ( -1.000000000000000000, -0.0000000000000000000, -0.0000000000000000000 ) ) ;
#246 = DIRECTION ( 'NONE',  ( -0.0000000000000000000, 0.0000000000000000000, 1.000000000000000000 ) ) ;
#247 = FACE_OUTER_BOUND ( 'NONE', #164, .T. ) ;
#248 = AXIS2_PLACEMENT_3D ( 'NONE', #223, #227, #226 ) ;
#249 = CIRCLE ( 'NONE', #235, 6.000000000000000000 ) ;
#250 = CARTESIAN_POINT ( 'NONE',  ( 35.00000000000000000, 0.0000000000000000000, 3.675080303767090500 ) ) ;
#251 =( NAMED_UNIT ( * ) PLANE_ANGLE_UNIT ( ) SI_UNIT ( $, .RADIAN. ) );
#252 = VECTOR ( 'NONE', #236, 1000.000000000000100 ) ;
#253 = CARTESIAN_POINT ( 'NONE',  ( 33.99999999999997200, 4.898587196589412800E-016, -4.000000000000000000 ) ) ;
#254 = LINE ( 'NONE', #241, #237 ) ;
#255 = UNCERTAINTY_MEASURE_WITH_UNIT (LENGTH_MEASURE( 1.000000000000000100E-005 ), #228, 'distance_accuracy_value', 'NONE');
#256 =( NAMED_UNIT ( * ) SI_UNIT ( $, .STERADIAN. ) SOLID_ANGLE_UNIT ( ) );
#257 = APPROVAL_DATE_TIME ( #176, #259 ) ;
#258 = CC_DESIGN_APPROVAL ( #259, ( #264 ) ) ;
#259 = APPROVAL ( #261, 'NON SPECIFICATO' ) ;
#260 = COORDINATED_UNIVERSAL_TIME_OFFSET ( 1, 0, .AHEAD. ) ;
#261 = APPROVAL_STATUS ( 'not_yet_approved' ) ;
#262 = CALENDAR_DATE ( 2013, 28, 1 ) ;
#263 = PERSON_AND_ORGANIZATION ( #212, #24 ) ;
#264 = PRODUCT_DEFINITION_FORMATION_WITH_SPECIFIED_SOURCE ( 'TUTTO', '', #213, .NOT_KNOWN. ) ;
#265 = CALENDAR_DATE ( 2013, 28, 1 ) ;
#266 = LOCAL_TIME ( 11, 54, 44.00000000000000000, #267 ) ;
#267 = COORDINATED_UNIVERSAL_TIME_OFFSET ( 1, 0, .AHEAD. ) ;
#268 = APPROVAL_PERSON_ORGANIZATION ( #263, #259, #271 ) ;
#269 = CC_DESIGN_DATE_AND_TIME_ASSIGNMENT ( #272, #270, ( #18 ) ) ;
#270 = DATE_TIME_ROLE ( 'creation_date' ) ;
#271 = APPROVAL_ROLE ( '' ) ;
#272 = DATE_AND_TIME ( #262, #273 ) ;
#273 = LOCAL_TIME ( 11, 54, 44.00000000000000000, #260 ) ;
#274 = PRODUCT_DEFINITION_SHAPE ( 'NONE', 'NONE',  #18 ) ;
#275 = SHAPE_DEFINITION_REPRESENTATION ( #274, #244 ) ;
#276 = CC_DESIGN_SECURITY_CLASSIFICATION ( #284, ( #264 ) ) ;
#277 = PRODUCT_RELATED_PRODUCT_CATEGORY ( 'detail', '', ( #213 ) ) ;
#278 = SECURITY_CLASSIFICATION_LEVEL ( 'unclassified' ) ;
#279 = CALENDAR_DATE ( 2013, 28, 1 ) ;
#280 = LOCAL_TIME ( 11, 54, 44.00000000000000000, #281 ) ;
#281 = COORDINATED_UNIVERSAL_TIME_OFFSET ( 1, 0, .AHEAD. ) ;
#282 = CC_DESIGN_PERSON_AND_ORGANIZATION_ASSIGNMENT ( #283, #285, ( #284 ) ) ;
#283 = PERSON_AND_ORGANIZATION ( #212, #24 ) ;
#284 = SECURITY_CLASSIFICATION ( '', '', #278 ) ;
#285 = PERSON_AND_ORGANIZATION_ROLE ( 'classification_officer' ) ;
#286 = DATE_TIME_ROLE ( 'classification_date' ) ;
#287 = DATE_AND_TIME ( #279, #280 ) ;
#288 = APPROVAL_ROLE ( '' ) ;
#289 = APPROVAL_PERSON_ORGANIZATION ( #299, #290, #288 ) ;
#290 = APPROVAL ( #298, 'NON SPECIFICATO' ) ;
#291 = CC_DESIGN_DATE_AND_TIME_ASSIGNMENT ( #287, #286, ( #284 ) ) ;
#292 = COORDINATED_UNIVERSAL_TIME_OFFSET ( 1, 0, .AHEAD. ) ;
#293 = DATE_AND_TIME ( #296, #297 ) ;
#294 = CC_DESIGN_APPROVAL ( #290, ( #284 ) ) ;
#295 = APPROVAL_DATE_TIME ( #293, #290 ) ;
#296 = CALENDAR_DATE ( 2013, 28, 1 ) ;
#297 = LOCAL_TIME ( 11, 54, 44.00000000000000000, #292 ) ;
#298 = APPROVAL_STATUS ( 'not_yet_approved' ) ;
#299 = PERSON_AND_ORGANIZATION ( #212, #24 ) ;
#300 = CC_DESIGN_PERSON_AND_ORGANIZATION_ASSIGNMENT ( #304, #305, ( #264 ) ) ;
#301 = CC_DESIGN_PERSON_AND_ORGANIZATION_ASSIGNMENT ( #302, #303, ( #264 ) ) ;
#302 = PERSON_AND_ORGANIZATION ( #212, #24 ) ;
#303 = PERSON_AND_ORGANIZATION_ROLE ( 'creator' ) ;
#304 = PERSON_AND_ORGANIZATION ( #212, #24 ) ;
#305 = PERSON_AND_ORGANIZATION_ROLE ( 'design_supplier' ) ;
ENDSEC;
END-ISO-10303-21;
