ISO-10303-21;
HEADER;
FILE_DESCRIPTION (( 'STEP AP203' ),
    '1' );
FILE_NAME ('084.514.013.STEP',
    '2015-04-16T12:49:38',
    ( '' ),
    ( '' ),
    'SwSTEP 2.0',
    'SolidWorks 2012',
    '' );
FILE_SCHEMA (( 'CONFIG_CONTROL_DESIGN' ));
ENDSEC;

DATA;
#1 = PRODUCT_DEFINITION_SHAPE ( 'NONE', 'NONE',  #147 ) ;
#2 = DESIGN_CONTEXT ( 'detailed design', #24, 'design' ) ;
#3 = CARTESIAN_POINT ( 'NONE',  ( -50.00000000000000000, 4.165075759481856800, 0.0000000000000000000 ) ) ;
#4 = DIRECTION ( 'NONE',  ( -0.0000000000000000000, 0.7071067811865474600, 0.7071067811865474600 ) ) ;
#5 =( NAMED_UNIT ( * ) PLANE_ANGLE_UNIT ( ) SI_UNIT ( $, .RADIAN. ) );
#6 = PERSON_AND_ORGANIZATION_ROLE ( 'classification_officer' ) ;
#7 = APPROVAL_ROLE ( '' ) ;
#8 = PERSON_AND_ORGANIZATION_ROLE ( 'design_owner' ) ;
#9 = APPROVAL_STATUS ( 'not_yet_approved' ) ;
#10 = DATE_TIME_ROLE ( 'classification_date' ) ;
#11 = SECURITY_CLASSIFICATION_LEVEL ( 'unclassified' ) ;
#12 = PERSON_AND_ORGANIZATION_ROLE ( 'design_supplier' ) ;
#13 = CARTESIAN_POINT ( 'NONE',  ( 0.0000000000000000000, 0.0000000000000000000, 0.0000000000000000000 ) ) ;
#14 = PERSON_AND_ORGANIZATION_ROLE ( 'creator' ) ;
#15 = CARTESIAN_POINT ( 'NONE',  ( -50.00000000000000000, -3.999999999994063900, 7.500000000006084900 ) ) ;
#16 = APPROVAL_ROLE ( '' ) ;
#17 = DATE_TIME_ROLE ( 'creation_date' ) ;
#18 = APPROVAL_STATUS ( 'not_yet_approved' ) ;
#19 = PERSON_AND_ORGANIZATION_ROLE ( 'creator' ) ;
#20 = APPROVAL_ROLE ( '' ) ;
#21 = DIRECTION ( 'NONE',  ( -1.000000000000000000, -0.0000000000000000000, -0.0000000000000000000 ) ) ;
#22 = APPLICATION_PROTOCOL_DEFINITION ( 'international standard', 'config_control_design', 1994, #24 ) ;
#23 = APPROVAL_STATUS ( 'not_yet_approved' ) ;
#24 = APPLICATION_CONTEXT ( 'configuration controlled 3d designs of mechanical parts and assemblies' ) ;
#25 = MECHANICAL_CONTEXT ( 'NONE', #29, 'mechanical' ) ;
#26 = DIRECTION ( 'NONE',  ( 0.0000000000000000000, 0.0000000000000000000, 1.000000000000000000 ) ) ;
#27 = DIRECTION ( 'NONE',  ( -0.0000000000000000000, -1.000000000000000000, -0.0000000000000000000 ) ) ;
#28 = DIRECTION ( 'NONE',  ( -0.0000000000000000000, -0.0000000000000000000, 1.000000000000000000 ) ) ;
#29 = APPLICATION_CONTEXT ( 'configuration controlled 3d designs of mechanical parts and assemblies' ) ;
#30 =( NAMED_UNIT ( * ) SI_UNIT ( $, .STERADIAN. ) SOLID_ANGLE_UNIT ( ) );
#31 =( LENGTH_UNIT ( ) NAMED_UNIT ( * ) SI_UNIT ( .MILLI., .METRE. ) );
#32 = CARTESIAN_POINT ( 'NONE',  ( -50.00000000000000000, 4.000000000005943700, 23.50000000000610000 ) ) ;
#33 = CARTESIAN_POINT ( 'NONE',  ( -50.00000000000000000, -4.165075759481856800, 0.0000000000000000000 ) ) ;
#34 = CARTESIAN_POINT ( 'NONE',  ( 50.00000000000000000, -3.999999999994063900, 23.50000000000610000 ) ) ;
#35 = CARTESIAN_POINT ( 'NONE',  ( 50.00000000000000000, 4.165075759481856800, 0.0000000000000000000 ) ) ;
#36 = CARTESIAN_POINT ( 'NONE',  ( 50.00000000000000000, -4.165075759481856800, 0.0000000000000000000 ) ) ;
#37 = CARTESIAN_POINT ( 'NONE',  ( -50.00000000000000000, -8.249999999994761500, 7.500000000006084900 ) ) ;
#38 = CARTESIAN_POINT ( 'NONE',  ( 50.00000000000000000, 4.000000000005943700, 7.500000000006084900 ) ) ;
#39 = CARTESIAN_POINT ( 'NONE',  ( 50.00000000000000000, 8.249999999994205500, 7.500000000006084900 ) ) ;
#40 = CARTESIAN_POINT ( 'NONE',  ( 50.00000000000000000, -8.249999999994761500, 7.500000000006084900 ) ) ;
#41 = CARTESIAN_POINT ( 'NONE',  ( 50.00000000000000000, -3.999999999994063900, 7.500000000006084900 ) ) ;
#42 = CARTESIAN_POINT ( 'NONE',  ( -50.00000000000000000, 8.249999999994205500, 7.500000000006084900 ) ) ;
#43 = CARTESIAN_POINT ( 'NONE',  ( 50.00000000000000000, 8.249999999994205500, 4.084924240512349600 ) ) ;
#44 = CARTESIAN_POINT ( 'NONE',  ( 50.00000000000000000, -8.249999999994761500, 4.084924240512904700 ) ) ;
#45 = DIRECTION ( 'NONE',  ( -1.000000000000000000, -0.0000000000000000000, -0.0000000000000000000 ) ) ;
#46 = DIRECTION ( 'NONE',  ( -1.000000000000000000, -0.0000000000000000000, -0.0000000000000000000 ) ) ;
#47 = DIRECTION ( 'NONE',  ( -0.0000000000000000000, -1.000000000000000000, -0.0000000000000000000 ) ) ;
#48 = CARTESIAN_POINT ( 'NONE',  ( -50.00000000000000000, 8.249999999994205500, 4.084924240512349600 ) ) ;
#49 = CARTESIAN_POINT ( 'NONE',  ( 50.00000000000000000, 8.249999999994205500, 4.084924240512349600 ) ) ;
#50 = CARTESIAN_POINT ( 'NONE',  ( 50.00000000000000000, -8.249999999994761500, 7.500000000006084900 ) ) ;
#51 = CARTESIAN_POINT ( 'NONE',  ( 50.00000000000000000, -8.249999999994761500, 7.500000000006084900 ) ) ;
#52 = DIRECTION ( 'NONE',  ( -0.0000000000000000000, -0.0000000000000000000, -1.000000000000000000 ) ) ;
#53 = CARTESIAN_POINT ( 'NONE',  ( 50.00000000000000000, -3.999999999994063900, 7.500000000006084900 ) ) ;
#54 = CARTESIAN_POINT ( 'NONE',  ( 50.00000000000000000, -3.999999999994063900, 23.50000000000610000 ) ) ;
#55 = CARTESIAN_POINT ( 'NONE',  ( -50.00000000000000000, -3.999999999994063900, 7.500000000006084900 ) ) ;
#56 = CARTESIAN_POINT ( 'NONE',  ( -50.00000000000000000, 8.249999999994205500, 4.084924240512349600 ) ) ;
#57 = DIRECTION ( 'NONE',  ( -1.000000000000000000, -0.0000000000000000000, -0.0000000000000000000 ) ) ;
#58 = DIRECTION ( 'NONE',  ( 1.000000000000000000, 0.0000000000000000000, 0.0000000000000000000 ) ) ;
#59 = DIRECTION ( 'NONE',  ( -0.0000000000000000000, -0.0000000000000000000, -1.000000000000000000 ) ) ;
#60 = CARTESIAN_POINT ( 'NONE',  ( -50.00000000000000000, -3.999999999994063900, 23.50000000000610000 ) ) ;
#61 = CARTESIAN_POINT ( 'NONE',  ( 50.00000000000000000, -3.999999999994063900, 7.500000000006084900 ) ) ;
#62 = CARTESIAN_POINT ( 'NONE',  ( 50.00000000000000000, 4.000000000005943700, 23.50000000000610000 ) ) ;
#63 = CARTESIAN_POINT ( 'NONE',  ( 50.00000000000000000, 4.000000000005943700, 23.50000000000610000 ) ) ;
#64 = DIRECTION ( 'NONE',  ( -0.0000000000000000000, -1.000000000000000000, -0.0000000000000000000 ) ) ;
#65 = DIRECTION ( 'NONE',  ( -0.0000000000000000000, -1.000000000000000000, -0.0000000000000000000 ) ) ;
#66 = CARTESIAN_POINT ( 'NONE',  ( 50.00000000000000000, -8.249999999994761500, 4.084924240512904700 ) ) ;
#67 = CARTESIAN_POINT ( 'NONE',  ( -50.00000000000000000, -8.249999999994761500, 4.084924240512904700 ) ) ;
#68 = DIRECTION ( 'NONE',  ( -0.0000000000000000000, -0.0000000000000000000, -1.000000000000000000 ) ) ;
#69 = CARTESIAN_POINT ( 'NONE',  ( -50.00000000000000000, 4.000000000005943700, 7.500000000006084900 ) ) ;
#70 = CARTESIAN_POINT ( 'NONE',  ( -50.00000000000000000, -8.249999999994761500, 4.084924240512904700 ) ) ;
#71 = CARTESIAN_POINT ( 'NONE',  ( -50.00000000000000000, -8.249999999994761500, 7.500000000006084900 ) ) ;
#72 = CARTESIAN_POINT ( 'NONE',  ( 50.00000000000000000, 4.000000000005943700, 23.50000000000610000 ) ) ;
#73 = DIRECTION ( 'NONE',  ( -1.000000000000000000, -0.0000000000000000000, -0.0000000000000000000 ) ) ;
#74 = DIRECTION ( 'NONE',  ( -1.000000000000000000, -0.0000000000000000000, -0.0000000000000000000 ) ) ;
#75 = CARTESIAN_POINT ( 'NONE',  ( 50.00000000000000000, -8.249999999994761500, 4.084924240512904700 ) ) ;
#76 = APPLICATION_PROTOCOL_DEFINITION ( 'international standard', 'config_control_design', 1994, #29 ) ;
#77 = DIRECTION ( 'NONE',  ( -0.0000000000000000000, -0.0000000000000000000, -1.000000000000000000 ) ) ;
#78 = UNCERTAINTY_MEASURE_WITH_UNIT (LENGTH_MEASURE( 1.000000000000000100E-005 ), #31, 'distance_accuracy_value', 'NONE');
#79 = MANIFOLD_SOLID_BREP ( 'Elemento strutturale1', #219 ) ;
#80 = ADVANCED_BREP_SHAPE_REPRESENTATION ( '084.514.013', ( #79, #149 ), #151 ) ;
#81 = ADVANCED_FACE ( 'NONE', ( #252 ), #404, .T. ) ;
#82 = ADVANCED_FACE ( 'NONE', ( #264 ), #420, .F. ) ;
#83 = ADVANCED_FACE ( 'NONE', ( #217 ), #411, .F. ) ;
#84 = ADVANCED_FACE ( 'NONE', ( #313 ), #432, .F. ) ;
#85 = ADVANCED_FACE ( 'NONE', ( #248 ), #385, .F. ) ;
#86 = ADVANCED_FACE ( 'NONE', ( #210 ), #421, .F. ) ;
#87 = ADVANCED_FACE ( 'NONE', ( #230 ), #433, .F. ) ;
#88 = ADVANCED_FACE ( 'NONE', ( #215 ), #410, .F. ) ;
#89 = ADVANCED_FACE ( 'NONE', ( #288 ), #371, .F. ) ;
#90 = ADVANCED_FACE ( 'NONE', ( #347 ), #388, .F. ) ;
#91 = ADVANCED_FACE ( 'NONE', ( #301 ), #402, .F. ) ;
#92 = ADVANCED_FACE ( 'NONE', ( #191 ), #405, .F. ) ;
#93 = AXIS2_PLACEMENT_3D ( 'NONE', #373, #372, #391 ) ;
#94 = AXIS2_PLACEMENT_3D ( 'NONE', #418, #414, #376 ) ;
#95 = AXIS2_PLACEMENT_3D ( 'NONE', #422, #362, #363 ) ;
#96 = AXIS2_PLACEMENT_3D ( 'NONE', #413, #384, #395 ) ;
#97 = AXIS2_PLACEMENT_3D ( 'NONE', #425, #382, #356 ) ;
#98 = AXIS2_PLACEMENT_3D ( 'NONE', #428, #394, #408 ) ;
#99 = AXIS2_PLACEMENT_3D ( 'NONE', #358, #406, #370 ) ;
#100 = AXIS2_PLACEMENT_3D ( 'NONE', #412, #407, #424 ) ;
#101 = EDGE_CURVE ( 'NONE', #312, #287, #350, .T. ) ;
#102 = EDGE_CURVE ( 'NONE', #207, #287, #318, .T. ) ;
#103 = EDGE_CURVE ( 'NONE', #305, #222, #340, .T. ) ;
#104 = EDGE_CURVE ( 'NONE', #253, #312, #229, .T. ) ;
#105 = EDGE_CURVE ( 'NONE', #271, #246, #238, .T. ) ;
#106 = EDGE_CURVE ( 'NONE', #222, #271, #316, .T. ) ;
#107 = EDGE_CURVE ( 'NONE', #246, #240, #319, .T. ) ;
#108 = EDGE_CURVE ( 'NONE', #305, #254, #332, .T. ) ;
#109 = EDGE_CURVE ( 'NONE', #284, #240, #244, .T. ) ;
#110 = EDGE_CURVE ( 'NONE', #287, #254, #268, .T. ) ;
#111 = EDGE_CURVE ( 'NONE', #271, #284, #285, .T. ) ;
#112 = EDGE_CURVE ( 'NONE', #240, #355, #233, .T. ) ;
#113 = EDGE_CURVE ( 'NONE', #296, #246, #354, .T. ) ;
#114 = EDGE_CURVE ( 'NONE', #312, #305, #235, .T. ) ;
#115 = EDGE_CURVE ( 'NONE', #254, #296, #349, .T. ) ;
#116 = EDGE_CURVE ( 'NONE', #222, #296, #203, .T. ) ;
#117 = EDGE_CURVE ( 'NONE', #346, #355, #251, .T. ) ;
#118 = EDGE_CURVE ( 'NONE', #355, #243, #335, .T. ) ;
#119 = EDGE_CURVE ( 'NONE', #213, #243, #353, .T. ) ;
#120 = EDGE_CURVE ( 'NONE', #346, #213, #344, .T. ) ;
#121 = EDGE_CURVE ( 'NONE', #243, #212, #309, .T. ) ;
#122 = EDGE_CURVE ( 'NONE', #260, #212, #199, .T. ) ;
#123 = EDGE_CURVE ( 'NONE', #213, #260, #282, .T. ) ;
#124 = EDGE_CURVE ( 'NONE', #212, #300, #307, .T. ) ;
#125 = EDGE_CURVE ( 'NONE', #280, #300, #272, .T. ) ;
#126 = EDGE_CURVE ( 'NONE', #260, #280, #351, .T. ) ;
#127 = EDGE_CURVE ( 'NONE', #300, #207, #304, .T. ) ;
#128 = EDGE_CURVE ( 'NONE', #280, #253, #270, .T. ) ;
#129 = PRODUCT_RELATED_PRODUCT_CATEGORY ( 'detail', '', ( #435 ) ) ;
#130 = CC_DESIGN_SECURITY_CLASSIFICATION ( #135, ( #141 ) ) ;
#131 = CC_DESIGN_APPROVAL ( #132, ( #135 ) ) ;
#132 = APPROVAL ( #9, 'NON SPECIFICATO' ) ;
#133 = CC_DESIGN_DATE_AND_TIME_ASSIGNMENT ( #175, #10, ( #135 ) ) ;
#134 = CC_DESIGN_PERSON_AND_ORGANIZATION_ASSIGNMENT ( #173, #6, ( #135 ) ) ;
#135 = SECURITY_CLASSIFICATION ( '', '', #11 ) ;
#136 = EDGE_CURVE ( 'NONE', #253, #207, #281, .T. ) ;
#137 = CC_DESIGN_PERSON_AND_ORGANIZATION_ASSIGNMENT ( #187, #12, ( #141 ) ) ;
#138 = CC_DESIGN_PERSON_AND_ORGANIZATION_ASSIGNMENT ( #171, #14, ( #141 ) ) ;
#139 = CC_DESIGN_APPROVAL ( #140, ( #141 ) ) ;
#140 = APPROVAL ( #18, 'NON SPECIFICATO' ) ;
#141 = PRODUCT_DEFINITION_FORMATION_WITH_SPECIFIED_SOURCE ( 'TUTTO', '', #435, .NOT_KNOWN. ) ;
#142 = CC_DESIGN_DATE_AND_TIME_ASSIGNMENT ( #176, #17, ( #147 ) ) ;
#143 = CC_DESIGN_PERSON_AND_ORGANIZATION_ASSIGNMENT ( #180, #19, ( #147 ) ) ;
#144 = EDGE_CURVE ( 'NONE', #284, #346, #329, .T. ) ;
#145 = CC_DESIGN_APPROVAL ( #146, ( #147 ) ) ;
#146 = APPROVAL ( #23, 'NON SPECIFICATO' ) ;
#147 = PRODUCT_DEFINITION ( 'NON CONOSCIUTO', '', #141, #2 ) ;
#148 = CC_DESIGN_PERSON_AND_ORGANIZATION_ASSIGNMENT ( #185, #8, ( #435 ) ) ;
#149 = AXIS2_PLACEMENT_3D ( 'NONE', #13, #26, #58 ) ;
#150 = AXIS2_PLACEMENT_3D ( 'NONE', #369, #398, #389 ) ;
#151 =( GEOMETRIC_REPRESENTATION_CONTEXT ( 3 ) GLOBAL_UNCERTAINTY_ASSIGNED_CONTEXT ( ( #78 ) ) GLOBAL_UNIT_ASSIGNED_CONTEXT ( ( #31, #5, #30 ) ) REPRESENTATION_CONTEXT ( 'NONE', 'WORKASPACE' ) );
#152 = AXIS2_PLACEMENT_3D ( 'NONE', #380, #390, #378 ) ;
#153 = AXIS2_PLACEMENT_3D ( 'NONE', #366, #415, #426 ) ;
#154 = AXIS2_PLACEMENT_3D ( 'NONE', #430, #386, #365 ) ;
#155 = SHAPE_DEFINITION_REPRESENTATION ( #1, #80 ) ;
#156 = COORDINATED_UNIVERSAL_TIME_OFFSET ( 1, 0, .AHEAD. ) ;
#157 = APPROVAL_PERSON_ORGANIZATION ( #190, #132, #7 ) ;
#158 = COORDINATED_UNIVERSAL_TIME_OFFSET ( 1, 0, .AHEAD. ) ;
#159 = LOCAL_TIME ( 14, 49, 38.00000000000000000, #156 ) ;
#160 = CALENDAR_DATE ( 2015, 16, 4 ) ;
#161 = PERSON_AND_ORGANIZATION ( #434, #182 ) ;
#162 = DATE_AND_TIME ( #189, #165 ) ;
#163 = DATE_AND_TIME ( #188, #186 ) ;
#164 = APPROVAL_DATE_TIME ( #163, #132 ) ;
#165 = LOCAL_TIME ( 14, 49, 38.00000000000000000, #158 ) ;
#166 = COORDINATED_UNIVERSAL_TIME_OFFSET ( 1, 0, .AHEAD. ) ;
#167 = LOCAL_TIME ( 14, 49, 38.00000000000000000, #166 ) ;
#168 = CALENDAR_DATE ( 2015, 16, 4 ) ;
#169 = APPROVAL_PERSON_ORGANIZATION ( #183, #140, #16 ) ;
#170 = DATE_AND_TIME ( #168, #167 ) ;
#171 = PERSON_AND_ORGANIZATION ( #434, #182 ) ;
#172 = APPROVAL_DATE_TIME ( #170, #140 ) ;
#173 = PERSON_AND_ORGANIZATION ( #434, #182 ) ;
#174 = APPROVAL_PERSON_ORGANIZATION ( #161, #146, #20 ) ;
#175 = DATE_AND_TIME ( #160, #159 ) ;
#176 = DATE_AND_TIME ( #177, #178 ) ;
#177 = CALENDAR_DATE ( 2015, 16, 4 ) ;
#178 = LOCAL_TIME ( 14, 49, 38.00000000000000000, #179 ) ;
#179 = COORDINATED_UNIVERSAL_TIME_OFFSET ( 1, 0, .AHEAD. ) ;
#180 = PERSON_AND_ORGANIZATION ( #434, #182 ) ;
#181 = APPROVAL_DATE_TIME ( #162, #146 ) ;
#182 = ORGANIZATION ( 'NON SPECIFICATO', 'NON SPECIFICATO', '' ) ;
#183 = PERSON_AND_ORGANIZATION ( #434, #182 ) ;
#184 = COORDINATED_UNIVERSAL_TIME_OFFSET ( 1, 0, .AHEAD. ) ;
#185 = PERSON_AND_ORGANIZATION ( #434, #182 ) ;
#186 = LOCAL_TIME ( 14, 49, 38.00000000000000000, #184 ) ;
#187 = PERSON_AND_ORGANIZATION ( #434, #182 ) ;
#188 = CALENDAR_DATE ( 2015, 16, 4 ) ;
#189 = CALENDAR_DATE ( 2015, 16, 4 ) ;
#190 = PERSON_AND_ORGANIZATION ( #434, #182 ) ;
#191 = FACE_OUTER_BOUND ( 'NONE', #192, .T. ) ;
#192 = EDGE_LOOP ( 'NONE', ( #258, #220, #276, #303 ) ) ;
#193 = ORIENTED_EDGE ( 'NONE', *, *, #120, .F. ) ;
#194 = EDGE_LOOP ( 'NONE', ( #249, #323, #336, #263, #231, #295, #297, #299, #352, #221 ) ) ;
#195 = ORIENTED_EDGE ( 'NONE', *, *, #108, .T. ) ;
#196 = VECTOR ( 'NONE', #68, 1000.000000000000000 ) ;
#197 = VECTOR ( 'NONE', #47, 1000.000000000000000 ) ;
#198 = VECTOR ( 'NONE', #359, 1000.000000000000000 ) ;
#199 = LINE ( 'NONE', #53, #333 ) ;
#200 = ORIENTED_EDGE ( 'NONE', *, *, #111, .F. ) ;
#201 = ORIENTED_EDGE ( 'NONE', *, *, #136, .T. ) ;
#202 = ORIENTED_EDGE ( 'NONE', *, *, #105, .T. ) ;
#203 = LINE ( 'NONE', #49, #241 ) ;
#204 = EDGE_LOOP ( 'NONE', ( #325, #326, #234, #226 ) ) ;
#205 = EDGE_LOOP ( 'NONE', ( #294, #236, #257, #214 ) ) ;
#206 = ORIENTED_EDGE ( 'NONE', *, *, #125, .F. ) ;
#207 = VERTEX_POINT ( 'NONE', #70 ) ;
#208 = ORIENTED_EDGE ( 'NONE', *, *, #126, .T. ) ;
#209 = ORIENTED_EDGE ( 'NONE', *, *, #101, .F. ) ;
#210 = FACE_OUTER_BOUND ( 'NONE', #327, .T. ) ;
#211 = ORIENTED_EDGE ( 'NONE', *, *, #122, .T. ) ;
#212 = VERTEX_POINT ( 'NONE', #15 ) ;
#213 = VERTEX_POINT ( 'NONE', #54 ) ;
#214 = ORIENTED_EDGE ( 'NONE', *, *, #116, .T. ) ;
#215 = FACE_OUTER_BOUND ( 'NONE', #194, .T. ) ;
#216 = VECTOR ( 'NONE', #74, 1000.000000000000000 ) ;
#217 = FACE_OUTER_BOUND ( 'NONE', #204, .T. ) ;
#218 = ORIENTED_EDGE ( 'NONE', *, *, #109, .F. ) ;
#219 = CLOSED_SHELL ( 'NONE', ( #85, #86, #84, #91, #87, #82, #89, #83, #90, #92, #81, #88 ) ) ;
#220 = ORIENTED_EDGE ( 'NONE', *, *, #136, .F. ) ;
#221 = ORIENTED_EDGE ( 'NONE', *, *, #110, .F. ) ;
#222 = VERTEX_POINT ( 'NONE', #43 ) ;
#223 = ORIENTED_EDGE ( 'NONE', *, *, #116, .F. ) ;
#224 = VECTOR ( 'NONE', #77, 1000.000000000000000 ) ;
#225 = ORIENTED_EDGE ( 'NONE', *, *, #126, .F. ) ;
#226 = ORIENTED_EDGE ( 'NONE', *, *, #119, .T. ) ;
#227 = EDGE_LOOP ( 'NONE', ( #291, #289, #265, #311 ) ) ;
#228 = VECTOR ( 'NONE', #52, 1000.000000000000000 ) ;
#229 = LINE ( 'NONE', #379, #322 ) ;
#230 = FACE_OUTER_BOUND ( 'NONE', #242, .T. ) ;
#231 = ORIENTED_EDGE ( 'NONE', *, *, #118, .F. ) ;
#232 = EDGE_LOOP ( 'NONE', ( #292, #206, #225, #211 ) ) ;
#233 = LINE ( 'NONE', #423, #250 ) ;
#234 = ORIENTED_EDGE ( 'NONE', *, *, #123, .F. ) ;
#235 = LINE ( 'NONE', #403, #286 ) ;
#236 = ORIENTED_EDGE ( 'NONE', *, *, #105, .F. ) ;
#237 = VECTOR ( 'NONE', #46, 1000.000000000000000 ) ;
#238 = LINE ( 'NONE', #367, #308 ) ;
#239 = ORIENTED_EDGE ( 'NONE', *, *, #106, .T. ) ;
#240 = VERTEX_POINT ( 'NONE', #69 ) ;
#241 = VECTOR ( 'NONE', #57, 1000.000000000000000 ) ;
#242 = EDGE_LOOP ( 'NONE', ( #277, #218, #200, #202 ) ) ;
#243 = VERTEX_POINT ( 'NONE', #60 ) ;
#244 = LINE ( 'NONE', #429, #256 ) ;
#245 = EDGE_LOOP ( 'NONE', ( #278, #209, #269, #201 ) ) ;
#246 = VERTEX_POINT ( 'NONE', #42 ) ;
#247 = ORIENTED_EDGE ( 'NONE', *, *, #119, .F. ) ;
#248 = FACE_OUTER_BOUND ( 'NONE', #245, .T. ) ;
#249 = ORIENTED_EDGE ( 'NONE', *, *, #102, .F. ) ;
#250 = VECTOR ( 'NONE', #392, 1000.000000000000000 ) ;
#251 = LINE ( 'NONE', #63, #237 ) ;
#252 = FACE_OUTER_BOUND ( 'NONE', #321, .T. ) ;
#253 = VERTEX_POINT ( 'NONE', #44 ) ;
#254 = VERTEX_POINT ( 'NONE', #3 ) ;
#255 = VECTOR ( 'NONE', #4, 1000.000000000000100 ) ;
#256 = VECTOR ( 'NONE', #409, 1000.000000000000000 ) ;
#257 = ORIENTED_EDGE ( 'NONE', *, *, #106, .F. ) ;
#258 = ORIENTED_EDGE ( 'NONE', *, *, #127, .T. ) ;
#259 = VECTOR ( 'NONE', #400, 1000.000000000000000 ) ;
#260 = VERTEX_POINT ( 'NONE', #41 ) ;
#261 = ORIENTED_EDGE ( 'NONE', *, *, #123, .T. ) ;
#262 = VECTOR ( 'NONE', #361, 1000.000000000000000 ) ;
#263 = ORIENTED_EDGE ( 'NONE', *, *, #121, .F. ) ;
#264 = FACE_OUTER_BOUND ( 'NONE', #227, .T. ) ;
#265 = ORIENTED_EDGE ( 'NONE', *, *, #144, .F. ) ;
#266 = ORIENTED_EDGE ( 'NONE', *, *, #104, .T. ) ;
#267 = VECTOR ( 'NONE', #431, 1000.000000000000000 ) ;
#268 = LINE ( 'NONE', #416, #341 ) ;
#269 = ORIENTED_EDGE ( 'NONE', *, *, #104, .F. ) ;
#270 = LINE ( 'NONE', #66, #224 ) ;
#271 = VERTEX_POINT ( 'NONE', #39 ) ;
#272 = LINE ( 'NONE', #50, #283 ) ;
#273 = VECTOR ( 'NONE', #383, 1000.000000000000100 ) ;
#274 = VECTOR ( 'NONE', #65, 1000.000000000000000 ) ;
#275 = VECTOR ( 'NONE', #45, 1000.000000000000000 ) ;
#276 = ORIENTED_EDGE ( 'NONE', *, *, #128, .F. ) ;
#277 = ORIENTED_EDGE ( 'NONE', *, *, #107, .T. ) ;
#278 = ORIENTED_EDGE ( 'NONE', *, *, #102, .T. ) ;
#279 = ORIENTED_EDGE ( 'NONE', *, *, #103, .F. ) ;
#280 = VERTEX_POINT ( 'NONE', #40 ) ;
#281 = LINE ( 'NONE', #75, #216 ) ;
#282 = LINE ( 'NONE', #61, #328 ) ;
#283 = VECTOR ( 'NONE', #73, 1000.000000000000000 ) ;
#284 = VERTEX_POINT ( 'NONE', #38 ) ;
#285 = LINE ( 'NONE', #368, #267 ) ;
#286 = VECTOR ( 'NONE', #374, 1000.000000000000000 ) ;
#287 = VERTEX_POINT ( 'NONE', #33 ) ;
#288 = FACE_OUTER_BOUND ( 'NONE', #315, .T. ) ;
#289 = ORIENTED_EDGE ( 'NONE', *, *, #117, .F. ) ;
#290 = VECTOR ( 'NONE', #27, 1000.000000000000000 ) ;
#291 = ORIENTED_EDGE ( 'NONE', *, *, #112, .T. ) ;
#292 = ORIENTED_EDGE ( 'NONE', *, *, #124, .T. ) ;
#293 = ORIENTED_EDGE ( 'NONE', *, *, #108, .F. ) ;
#294 = ORIENTED_EDGE ( 'NONE', *, *, #113, .T. ) ;
#295 = ORIENTED_EDGE ( 'NONE', *, *, #112, .F. ) ;
#296 = VERTEX_POINT ( 'NONE', #48 ) ;
#297 = ORIENTED_EDGE ( 'NONE', *, *, #107, .F. ) ;
#298 = ORIENTED_EDGE ( 'NONE', *, *, #103, .T. ) ;
#299 = ORIENTED_EDGE ( 'NONE', *, *, #113, .F. ) ;
#300 = VERTEX_POINT ( 'NONE', #37 ) ;
#301 = FACE_OUTER_BOUND ( 'NONE', #205, .T. ) ;
#302 = VECTOR ( 'NONE', #28, 1000.000000000000000 ) ;
#303 = ORIENTED_EDGE ( 'NONE', *, *, #125, .T. ) ;
#304 = LINE ( 'NONE', #67, #196 ) ;
#305 = VERTEX_POINT ( 'NONE', #35 ) ;
#306 = ORIENTED_EDGE ( 'NONE', *, *, #101, .T. ) ;
#307 = LINE ( 'NONE', #71, #290 ) ;
#308 = VECTOR ( 'NONE', #399, 1000.000000000000000 ) ;
#309 = LINE ( 'NONE', #55, #228 ) ;
#310 = ORIENTED_EDGE ( 'NONE', *, *, #110, .T. ) ;
#311 = ORIENTED_EDGE ( 'NONE', *, *, #109, .T. ) ;
#312 = VERTEX_POINT ( 'NONE', #36 ) ;
#313 = FACE_OUTER_BOUND ( 'NONE', #330, .T. ) ;
#314 = ORIENTED_EDGE ( 'NONE', *, *, #111, .T. ) ;
#315 = EDGE_LOOP ( 'NONE', ( #342, #247, #193, #348 ) ) ;
#316 = LINE ( 'NONE', #397, #198 ) ;
#317 = ORIENTED_EDGE ( 'NONE', *, *, #114, .F. ) ;
#318 = LINE ( 'NONE', #360, #337 ) ;
#319 = LINE ( 'NONE', #393, #331 ) ;
#320 = ORIENTED_EDGE ( 'NONE', *, *, #114, .T. ) ;
#321 = EDGE_LOOP ( 'NONE', ( #266, #320, #298, #239, #314, #343, #345, #261, #208, #339 ) ) ;
#322 = VECTOR ( 'NONE', #387, 1000.000000000000100 ) ;
#323 = ORIENTED_EDGE ( 'NONE', *, *, #127, .F. ) ;
#324 = VECTOR ( 'NONE', #64, 1000.000000000000000 ) ;
#325 = ORIENTED_EDGE ( 'NONE', *, *, #121, .T. ) ;
#326 = ORIENTED_EDGE ( 'NONE', *, *, #122, .F. ) ;
#327 = EDGE_LOOP ( 'NONE', ( #310, #293, #317, #306 ) ) ;
#328 = VECTOR ( 'NONE', #59, 1000.000000000000000 ) ;
#329 = LINE ( 'NONE', #72, #302 ) ;
#330 = EDGE_LOOP ( 'NONE', ( #334, #223, #279, #195 ) ) ;
#331 = VECTOR ( 'NONE', #417, 1000.000000000000000 ) ;
#332 = LINE ( 'NONE', #357, #262 ) ;
#333 = VECTOR ( 'NONE', #21, 1000.000000000000000 ) ;
#334 = ORIENTED_EDGE ( 'NONE', *, *, #115, .T. ) ;
#335 = LINE ( 'NONE', #419, #324 ) ;
#336 = ORIENTED_EDGE ( 'NONE', *, *, #124, .F. ) ;
#337 = VECTOR ( 'NONE', #381, 1000.000000000000100 ) ;
#338 = VECTOR ( 'NONE', #364, 1000.000000000000000 ) ;
#339 = ORIENTED_EDGE ( 'NONE', *, *, #128, .T. ) ;
#340 = LINE ( 'NONE', #396, #273 ) ;
#341 = VECTOR ( 'NONE', #377, 1000.000000000000000 ) ;
#342 = ORIENTED_EDGE ( 'NONE', *, *, #118, .T. ) ;
#343 = ORIENTED_EDGE ( 'NONE', *, *, #144, .T. ) ;
#344 = LINE ( 'NONE', #427, #197 ) ;
#345 = ORIENTED_EDGE ( 'NONE', *, *, #120, .T. ) ;
#346 = VERTEX_POINT ( 'NONE', #62 ) ;
#347 = FACE_OUTER_BOUND ( 'NONE', #232, .T. ) ;
#348 = ORIENTED_EDGE ( 'NONE', *, *, #117, .T. ) ;
#349 = LINE ( 'NONE', #56, #255 ) ;
#350 = LINE ( 'NONE', #375, #259 ) ;
#351 = LINE ( 'NONE', #51, #274 ) ;
#352 = ORIENTED_EDGE ( 'NONE', *, *, #115, .F. ) ;
#353 = LINE ( 'NONE', #34, #275 ) ;
#354 = LINE ( 'NONE', #401, #338 ) ;
#355 = VERTEX_POINT ( 'NONE', #32 ) ;
#356 = DIRECTION ( 'NONE',  ( 0.0000000000000000000, -0.7071067811865474600, -0.7071067811865474600 ) ) ;
#357 = CARTESIAN_POINT ( 'NONE',  ( 50.00000000000000000, 4.165075759481856800, 0.0000000000000000000 ) ) ;
#358 = CARTESIAN_POINT ( 'NONE',  ( 50.00000000000000000, 4.000000000005943700, 23.50000000000610000 ) ) ;
#359 = DIRECTION ( 'NONE',  ( -0.0000000000000000000, -0.0000000000000000000, 1.000000000000000000 ) ) ;
#360 = CARTESIAN_POINT ( 'NONE',  ( -50.00000000000000000, -4.165075759481856800, 0.0000000000000000000 ) ) ;
#361 = DIRECTION ( 'NONE',  ( -1.000000000000000000, -0.0000000000000000000, -0.0000000000000000000 ) ) ;
#362 = DIRECTION ( 'NONE',  ( -0.0000000000000000000, 0.0000000000000000000, 1.000000000000000000 ) ) ;
#363 = DIRECTION ( 'NONE',  ( 1.000000000000000000, 0.0000000000000000000, 0.0000000000000000000 ) ) ;
#364 = DIRECTION ( 'NONE',  ( -0.0000000000000000000, -0.0000000000000000000, 1.000000000000000000 ) ) ;
#365 = DIRECTION ( 'NONE',  ( -1.000000000000000000, 0.0000000000000000000, -0.0000000000000000000 ) ) ;
#366 = CARTESIAN_POINT ( 'NONE',  ( 50.00000000000000000, -8.249999999994761500, 7.500000000006084900 ) ) ;
#367 = CARTESIAN_POINT ( 'NONE',  ( 50.00000000000000000, 8.249999999994205500, 7.500000000006084900 ) ) ;
#368 = CARTESIAN_POINT ( 'NONE',  ( 50.00000000000000000, 4.000000000005943700, 7.500000000006084900 ) ) ;
#369 = CARTESIAN_POINT ( 'NONE',  ( 50.00000000000000000, -8.249999999994761500, 4.084924240512904700 ) ) ;
#370 = DIRECTION ( 'NONE',  ( 0.0000000000000000000, -0.0000000000000000000, -1.000000000000000000 ) ) ;
#371 = PLANE ( 'NONE',  #154 ) ;
#372 = DIRECTION ( 'NONE',  ( 1.000000000000000000, 0.0000000000000000000, 0.0000000000000000000 ) ) ;
#373 = CARTESIAN_POINT ( 'NONE',  ( -50.00000000000000000, 0.0000000000000000000, 0.0000000000000000000 ) ) ;
#374 = DIRECTION ( 'NONE',  ( -0.0000000000000000000, 1.000000000000000000, -0.0000000000000000000 ) ) ;
#375 = CARTESIAN_POINT ( 'NONE',  ( 50.00000000000000000, -4.165075759481856800, 0.0000000000000000000 ) ) ;
#376 = DIRECTION ( 'NONE',  ( -1.000000000000000000, 0.0000000000000000000, -0.0000000000000000000 ) ) ;
#377 = DIRECTION ( 'NONE',  ( -0.0000000000000000000, 1.000000000000000000, -0.0000000000000000000 ) ) ;
#378 = DIRECTION ( 'NONE',  ( 0.0000000000000000000, -0.0000000000000000000, -1.000000000000000000 ) ) ;
#379 = CARTESIAN_POINT ( 'NONE',  ( 50.00000000000000000, -4.165075759481856800, 0.0000000000000000000 ) ) ;
#380 = CARTESIAN_POINT ( 'NONE',  ( 50.00000000000000000, 8.249999999994205500, 7.500000000006084900 ) ) ;
#381 = DIRECTION ( 'NONE',  ( -0.0000000000000000000, 0.7071067811865474600, -0.7071067811865474600 ) ) ;
#382 = DIRECTION ( 'NONE',  ( 0.0000000000000000000, -0.7071067811865475700, 0.7071067811865475700 ) ) ;
#383 = DIRECTION ( 'NONE',  ( -0.0000000000000000000, 0.7071067811865474600, 0.7071067811865474600 ) ) ;
#384 = DIRECTION ( 'NONE',  ( -0.0000000000000000000, 0.7071067811865475700, 0.7071067811865475700 ) ) ;
#385 = PLANE ( 'NONE',  #96 ) ;
#386 = DIRECTION ( 'NONE',  ( 0.0000000000000000000, 0.0000000000000000000, -1.000000000000000000 ) ) ;
#387 = DIRECTION ( 'NONE',  ( -0.0000000000000000000, 0.7071067811865474600, -0.7071067811865474600 ) ) ;
#388 = PLANE ( 'NONE',  #153 ) ;
#389 = DIRECTION ( 'NONE',  ( 0.0000000000000000000, -0.0000000000000000000, 1.000000000000000000 ) ) ;
#390 = DIRECTION ( 'NONE',  ( 0.0000000000000000000, -1.000000000000000000, 0.0000000000000000000 ) ) ;
#391 = DIRECTION ( 'NONE',  ( 0.0000000000000000000, 0.0000000000000000000, -1.000000000000000000 ) ) ;
#392 = DIRECTION ( 'NONE',  ( -0.0000000000000000000, -0.0000000000000000000, 1.000000000000000000 ) ) ;
#393 = CARTESIAN_POINT ( 'NONE',  ( -50.00000000000000000, 4.000000000005943700, 7.500000000006084900 ) ) ;
#394 = DIRECTION ( 'NONE',  ( 0.0000000000000000000, 1.000000000000000000, 0.0000000000000000000 ) ) ;
#395 = DIRECTION ( 'NONE',  ( 0.0000000000000000000, -0.7071067811865474600, 0.7071067811865474600 ) ) ;
#396 = CARTESIAN_POINT ( 'NONE',  ( 50.00000000000000000, 8.249999999994205500, 4.084924240512349600 ) ) ;
#397 = CARTESIAN_POINT ( 'NONE',  ( 50.00000000000000000, 8.249999999994205500, 7.500000000006084900 ) ) ;
#398 = DIRECTION ( 'NONE',  ( 0.0000000000000000000, 1.000000000000000000, 0.0000000000000000000 ) ) ;
#399 = DIRECTION ( 'NONE',  ( -1.000000000000000000, -0.0000000000000000000, -0.0000000000000000000 ) ) ;
#400 = DIRECTION ( 'NONE',  ( -1.000000000000000000, -0.0000000000000000000, -0.0000000000000000000 ) ) ;
#401 = CARTESIAN_POINT ( 'NONE',  ( -50.00000000000000000, 8.249999999994205500, 7.500000000006084900 ) ) ;
#402 = PLANE ( 'NONE',  #152 ) ;
#403 = CARTESIAN_POINT ( 'NONE',  ( 50.00000000000000000, 4.165075759481856800, 0.0000000000000000000 ) ) ;
#404 = PLANE ( 'NONE',  #100 ) ;
#405 = PLANE ( 'NONE',  #150 ) ;
#406 = DIRECTION ( 'NONE',  ( 0.0000000000000000000, -1.000000000000000000, 0.0000000000000000000 ) ) ;
#407 = DIRECTION ( 'NONE',  ( 1.000000000000000000, 0.0000000000000000000, 0.0000000000000000000 ) ) ;
#408 = DIRECTION ( 'NONE',  ( 0.0000000000000000000, -0.0000000000000000000, 1.000000000000000000 ) ) ;
#409 = DIRECTION ( 'NONE',  ( -1.000000000000000000, -0.0000000000000000000, -0.0000000000000000000 ) ) ;
#410 = PLANE ( 'NONE',  #93 ) ;
#411 = PLANE ( 'NONE',  #98 ) ;
#412 = CARTESIAN_POINT ( 'NONE',  ( 50.00000000000000000, 0.0000000000000000000, 0.0000000000000000000 ) ) ;
#413 = CARTESIAN_POINT ( 'NONE',  ( 50.00000000000000000, -4.165075759481856800, 0.0000000000000000000 ) ) ;
#414 = DIRECTION ( 'NONE',  ( 0.0000000000000000000, 0.0000000000000000000, -1.000000000000000000 ) ) ;
#415 = DIRECTION ( 'NONE',  ( 0.0000000000000000000, 0.0000000000000000000, -1.000000000000000000 ) ) ;
#416 = CARTESIAN_POINT ( 'NONE',  ( -50.00000000000000000, 4.165075759481856800, 0.0000000000000000000 ) ) ;
#417 = DIRECTION ( 'NONE',  ( -0.0000000000000000000, -1.000000000000000000, -0.0000000000000000000 ) ) ;
#418 = CARTESIAN_POINT ( 'NONE',  ( 50.00000000000000000, 4.000000000005943700, 7.500000000006084900 ) ) ;
#419 = CARTESIAN_POINT ( 'NONE',  ( -50.00000000000000000, -3.999999999994063900, 23.50000000000610000 ) ) ;
#420 = PLANE ( 'NONE',  #99 ) ;
#421 = PLANE ( 'NONE',  #95 ) ;
#422 = CARTESIAN_POINT ( 'NONE',  ( 50.00000000000000000, 4.165075759481856800, 0.0000000000000000000 ) ) ;
#423 = CARTESIAN_POINT ( 'NONE',  ( -50.00000000000000000, 4.000000000005943700, 23.50000000000610000 ) ) ;
#424 = DIRECTION ( 'NONE',  ( 0.0000000000000000000, 0.0000000000000000000, -1.000000000000000000 ) ) ;
#425 = CARTESIAN_POINT ( 'NONE',  ( 50.00000000000000000, 8.249999999994205500, 4.084924240512349600 ) ) ;
#426 = DIRECTION ( 'NONE',  ( -1.000000000000000000, 0.0000000000000000000, -0.0000000000000000000 ) ) ;
#427 = CARTESIAN_POINT ( 'NONE',  ( 50.00000000000000000, -3.999999999994063900, 23.50000000000610000 ) ) ;
#428 = CARTESIAN_POINT ( 'NONE',  ( 50.00000000000000000, -3.999999999994063900, 7.500000000006084900 ) ) ;
#429 = CARTESIAN_POINT ( 'NONE',  ( 50.00000000000000000, 4.000000000005943700, 7.500000000006084900 ) ) ;
#430 = CARTESIAN_POINT ( 'NONE',  ( 50.00000000000000000, -3.999999999994063900, 23.50000000000610000 ) ) ;
#431 = DIRECTION ( 'NONE',  ( -0.0000000000000000000, -1.000000000000000000, -0.0000000000000000000 ) ) ;
#432 = PLANE ( 'NONE',  #97 ) ;
#433 = PLANE ( 'NONE',  #94 ) ;
#434 = PERSON ( 'NON SPECIFICATO', 'NON SPECIFICATO', 'NON SPECIFICATO', ('NON SPECIFICATO'), ('NON SPECIFICATO'), ('NON SPECIFICATO') ) ;
#435 = PRODUCT ( '084.514.013', '084.514.013', '', ( #25 ) ) ;
ENDSEC;
END-ISO-10303-21;
