ISO-10303-21;
HEADER;
FILE_DESCRIPTION (( 'STEP AP203' ),
    '1' );
FILE_NAME ('084.514.012.STEP',
    '2013-01-28T13:20:19',
    ( 'Alusic' ),
    ( 'Alusic' ),
    'SwSTEP 2.0',
    'SolidWorks 2011',
    '' );
FILE_SCHEMA (( 'CONFIG_CONTROL_DESIGN' ));
ENDSEC;

DATA;
#1 = ORIENTED_EDGE ( 'NONE', *, *, #80, .T. ) ;
#2 = ORIENTED_EDGE ( 'NONE', *, *, #6, .T. ) ;
#3 = EDGE_CURVE ( 'NONE', #81, #107, #145, .T. ) ;
#4 = ADVANCED_FACE ( 'NONE', ( #146 ), #184, .F. ) ;
#5 = VERTEX_POINT ( 'NONE', #123 ) ;
#6 = EDGE_CURVE ( 'NONE', #109, #5, #122, .T. ) ;
#7 = EDGE_LOOP ( 'NONE', ( #68, #77, #70, #111 ) ) ;
#8 = EDGE_LOOP ( 'NONE', ( #2, #30, #23, #26 ) ) ;
#9 = ADVANCED_FACE ( 'NONE', ( #117 ), #183, .F. ) ;
#10 = VERTEX_POINT ( 'NONE', #153 ) ;
#11 = MANIFOLD_SOLID_BREP ( 'Elemento strutturale1', #177 ) ;
#12 = DIRECTION ( 'NONE',  ( 0.0000000000000000000, -1.000000000000000000, 3.548151678170759300E-014 ) ) ;
#13 = DIRECTION ( 'NONE',  ( -0.0000000000000000000, 3.548151678170759300E-014, 1.000000000000000000 ) ) ;
#14 = EDGE_CURVE ( 'NONE', #10, #27, #139, .T. ) ;
#15 = ORIENTED_EDGE ( 'NONE', *, *, #45, .T. ) ;
#16 = ORIENTED_EDGE ( 'NONE', *, *, #49, .F. ) ;
#17 = EDGE_CURVE ( 'NONE', #61, #5, #152, .T. ) ;
#18 = EDGE_CURVE ( 'NONE', #24, #74, #202, .T. ) ;
#19 = EDGE_LOOP ( 'NONE', ( #57, #59, #55, #36 ) ) ;
#20 = EDGE_LOOP ( 'NONE', ( #46, #37, #39, #25 ) ) ;
#21 = EDGE_LOOP ( 'NONE', ( #52, #16, #53, #44 ) ) ;
#22 = EDGE_CURVE ( 'NONE', #107, #61, #189, .T. ) ;
#23 = ORIENTED_EDGE ( 'NONE', *, *, #22, .F. ) ;
#24 = VERTEX_POINT ( 'NONE', #141 ) ;
#25 = ORIENTED_EDGE ( 'NONE', *, *, #49, .T. ) ;
#26 = ORIENTED_EDGE ( 'NONE', *, *, #104, .T. ) ;
#27 = VERTEX_POINT ( 'NONE', #115 ) ;
#28 = EDGE_CURVE ( 'NONE', #32, #65, #197, .T. ) ;
#29 = EDGE_LOOP ( 'NONE', ( #15, #170, #41, #180 ) ) ;
#30 = ORIENTED_EDGE ( 'NONE', *, *, #17, .F. ) ;
#31 = VERTEX_POINT ( 'NONE', #157 ) ;
#32 = VERTEX_POINT ( 'NONE', #207 ) ;
#33 = VERTEX_POINT ( 'NONE', #194 ) ;
#34 = EDGE_CURVE ( 'NONE', #61, #10, #136, .T. ) ;
#35 = EDGE_CURVE ( 'NONE', #10, #33, #130, .T. ) ;
#36 = ORIENTED_EDGE ( 'NONE', *, *, #14, .T. ) ;
#37 = ORIENTED_EDGE ( 'NONE', *, *, #64, .F. ) ;
#38 = ADVANCED_FACE ( 'NONE', ( #192 ), #132, .F. ) ;
#39 = ORIENTED_EDGE ( 'NONE', *, *, #28, .F. ) ;
#40 = ADVANCED_FACE ( 'NONE', ( #213 ), #164, .F. ) ;
#41 = ORIENTED_EDGE ( 'NONE', *, *, #34, .F. ) ;
#42 = ADVANCED_FACE ( 'NONE', ( #169 ), #218, .F. ) ;
#43 = ORIENTED_EDGE ( 'NONE', *, *, #105, .F. ) ;
#44 = ORIENTED_EDGE ( 'NONE', *, *, #67, .T. ) ;
#45 = EDGE_CURVE ( 'NONE', #5, #27, #221, .T. ) ;
#46 = ORIENTED_EDGE ( 'NONE', *, *, #51, .T. ) ;
#47 = ORIENTED_EDGE ( 'NONE', *, *, #82, .F. ) ;
#48 = EDGE_LOOP ( 'NONE', ( #63, #43, #79, #171 ) ) ;
#49 = EDGE_CURVE ( 'NONE', #32, #54, #234, .T. ) ;
#50 = ADVANCED_FACE ( 'NONE', ( #229 ), #223, .F. ) ;
#51 = EDGE_CURVE ( 'NONE', #54, #24, #232, .T. ) ;
#52 = ORIENTED_EDGE ( 'NONE', *, *, #56, .T. ) ;
#53 = ORIENTED_EDGE ( 'NONE', *, *, #62, .F. ) ;
#54 = VERTEX_POINT ( 'NONE', #237 ) ;
#55 = ORIENTED_EDGE ( 'NONE', *, *, #35, .F. ) ;
#56 = EDGE_CURVE ( 'NONE', #31, #54, #243, .T. ) ;
#57 = ORIENTED_EDGE ( 'NONE', *, *, #198, .T. ) ;
#58 = ADVANCED_FACE ( 'NONE', ( #239 ), #245, .F. ) ;
#59 = ORIENTED_EDGE ( 'NONE', *, *, #67, .F. ) ;
#60 = VECTOR ( 'NONE', #66, 1000.000000000000000 ) ;
#61 = VERTEX_POINT ( 'NONE', #247 ) ;
#62 = EDGE_CURVE ( 'NONE', #33, #32, #254, .T. ) ;
#63 = ORIENTED_EDGE ( 'NONE', *, *, #18, .T. ) ;
#64 = EDGE_CURVE ( 'NONE', #65, #24, #249, .T. ) ;
#65 = VERTEX_POINT ( 'NONE', #227 ) ;
#66 = DIRECTION ( 'NONE',  ( -1.000000000000000000, -0.0000000000000000000, -0.0000000000000000000 ) ) ;
#67 = EDGE_CURVE ( 'NONE', #33, #31, #212, .T. ) ;
#68 = ORIENTED_EDGE ( 'NONE', *, *, #76, .T. ) ;
#69 = EDGE_LOOP ( 'NONE', ( #106, #101, #94, #97 ) ) ;
#70 = ORIENTED_EDGE ( 'NONE', *, *, #75, .F. ) ;
#71 = EDGE_CURVE ( 'NONE', #110, #78, #246, .T. ) ;
#72 =( LENGTH_UNIT ( ) NAMED_UNIT ( * ) SI_UNIT ( .MILLI., .METRE. ) );
#73 = ORIENTED_EDGE ( 'NONE', *, *, #104, .F. ) ;
#74 = VERTEX_POINT ( 'NONE', #263 ) ;
#75 = EDGE_CURVE ( 'NONE', #112, #110, #320, .T. ) ;
#76 = EDGE_CURVE ( 'NONE', #74, #78, #283, .T. ) ;
#77 = ORIENTED_EDGE ( 'NONE', *, *, #71, .F. ) ;
#78 = VERTEX_POINT ( 'NONE', #287 ) ;
#79 = ORIENTED_EDGE ( 'NONE', *, *, #118, .F. ) ;
#80 = EDGE_CURVE ( 'NONE', #81, #96, #262, .T. ) ;
#81 = VERTEX_POINT ( 'NONE', #284 ) ;
#82 = EDGE_CURVE ( 'NONE', #96, #109, #293, .T. ) ;
#83 = EDGE_CURVE ( 'NONE', #99, #81, #301, .T. ) ;
#84 = ORIENTED_EDGE ( 'NONE', *, *, #100, .T. ) ;
#85 = EDGE_LOOP ( 'NONE', ( #92, #73, #86, #1 ) ) ;
#86 = ORIENTED_EDGE ( 'NONE', *, *, #3, .F. ) ;
#87 = ADVANCED_FACE ( 'NONE', ( #295 ), #286, .F. ) ;
#88 = EDGE_LOOP ( 'NONE', ( #89, #95, #98, #84 ) ) ;
#89 = ORIENTED_EDGE ( 'NONE', *, *, #90, .T. ) ;
#90 = EDGE_CURVE ( 'NONE', #103, #96, #313, .T. ) ;
#91 = ADVANCED_FACE ( 'NONE', ( #317 ), #308, .F. ) ;
#92 = ORIENTED_EDGE ( 'NONE', *, *, #82, .T. ) ;
#93 = EDGE_CURVE ( 'NONE', #110, #99, #305, .T. ) ;
#94 = ORIENTED_EDGE ( 'NONE', *, *, #93, .F. ) ;
#95 = ORIENTED_EDGE ( 'NONE', *, *, #80, .F. ) ;
#96 = VERTEX_POINT ( 'NONE', #310 ) ;
#97 = ORIENTED_EDGE ( 'NONE', *, *, #71, .T. ) ;
#98 = ORIENTED_EDGE ( 'NONE', *, *, #83, .F. ) ;
#99 = VERTEX_POINT ( 'NONE', #306 ) ;
#100 = EDGE_CURVE ( 'NONE', #99, #103, #307, .T. ) ;
#101 = ORIENTED_EDGE ( 'NONE', *, *, #100, .F. ) ;
#102 = EDGE_CURVE ( 'NONE', #78, #103, #339, .T. ) ;
#103 = VERTEX_POINT ( 'NONE', #346 ) ;
#104 = EDGE_CURVE ( 'NONE', #107, #109, #335, .T. ) ;
#105 = EDGE_CURVE ( 'NONE', #112, #74, #331, .T. ) ;
#106 = ORIENTED_EDGE ( 'NONE', *, *, #102, .T. ) ;
#107 = VERTEX_POINT ( 'NONE', #348 ) ;
#108 = ADVANCED_FACE ( 'NONE', ( #325 ), #336, .F. ) ;
#109 = VERTEX_POINT ( 'NONE', #345 ) ;
#110 = VERTEX_POINT ( 'NONE', #281 ) ;
#111 = ORIENTED_EDGE ( 'NONE', *, *, #105, .T. ) ;
#112 = VERTEX_POINT ( 'NONE', #330 ) ;
#113 = DIRECTION ( 'NONE',  ( -1.000000000000000000, 0.0000000000000000000, -0.0000000000000000000 ) ) ;
#114 = DIRECTION ( 'NONE',  ( 0.0000000000000000000, 0.0000000000000000000, -1.000000000000000000 ) ) ;
#115 = CARTESIAN_POINT ( 'NONE',  ( 0.0000000000000000000, -1873.091751690878500, 2551.413128876135000 ) ) ;
#116 = CARTESIAN_POINT ( 'NONE',  ( 100.0000000000000000, -1858.191751690878200, 2556.102252399009100 ) ) ;
#117 = FACE_OUTER_BOUND ( 'NONE', #7, .T. ) ;
#118 = EDGE_CURVE ( 'NONE', #65, #112, #276, .T. ) ;
#119 = ORIENTED_EDGE ( 'NONE', *, *, #22, .T. ) ;
#120 =( NAMED_UNIT ( * ) SI_UNIT ( $, .STERADIAN. ) SOLID_ANGLE_UNIT ( ) );
#121 =( NAMED_UNIT ( * ) PLANE_ANGLE_UNIT ( ) SI_UNIT ( $, .RADIAN. ) );
#122 = LINE ( 'NONE', #182, #154 ) ;
#123 = CARTESIAN_POINT ( 'NONE',  ( 0.0000000000000000000, -1873.091751690878000, 2556.102252399009100 ) ) ;
#124 = ORIENTED_EDGE ( 'NONE', *, *, #34, .T. ) ;
#125 = ORIENTED_EDGE ( 'NONE', *, *, #35, .T. ) ;
#126 = ORIENTED_EDGE ( 'NONE', *, *, #83, .T. ) ;
#127 = DIRECTION ( 'NONE',  ( -0.0000000000000000000, 0.7399400733958865200, -0.6726727939963753600 ) ) ;
#128 = VECTOR ( 'NONE', #127, 1000.000000000000000 ) ;
#129 = CARTESIAN_POINT ( 'NONE',  ( 100.0000000000000000, -1869.449787566039700, 2548.102252399008600 ) ) ;
#130 = LINE ( 'NONE', #129, #128 ) ;
#131 = CARTESIAN_POINT ( 'NONE',  ( 100.0000000000000000, -1853.291751690877800, 2551.413128876135000 ) ) ;
#132 = PLANE ( 'NONE',  #163 ) ;
#133 = DIRECTION ( 'NONE',  ( -0.0000000000000000000, -9.470622978554209600E-014, -1.000000000000000000 ) ) ;
#134 = VECTOR ( 'NONE', #133, 1000.000000000000000 ) ;
#135 = CARTESIAN_POINT ( 'NONE',  ( 100.0000000000000000, -1873.091751690878500, 2551.413128876135000 ) ) ;
#136 = LINE ( 'NONE', #135, #134 ) ;
#137 = VECTOR ( 'NONE', #208, 1000.000000000000000 ) ;
#138 = CARTESIAN_POINT ( 'NONE',  ( 100.0000000000000000, -1873.091751690878500, 2551.413128876135000 ) ) ;
#139 = LINE ( 'NONE', #138, #137 ) ;
#140 = CARTESIAN_POINT ( 'NONE',  ( 0.0000000000000000000, -1853.291751690877800, 2556.102252399009100 ) ) ;
#141 = CARTESIAN_POINT ( 'NONE',  ( 0.0000000000000000000, -1853.291751690877800, 2551.413128876135000 ) ) ;
#142 = AXIS2_PLACEMENT_3D ( 'NONE', #116, #114, #113 ) ;
#143 = VECTOR ( 'NONE', #185, 1000.000000000000000 ) ;
#144 = CARTESIAN_POINT ( 'NONE',  ( 100.0000000000000000, -1868.191751690878200, 2556.102252399009100 ) ) ;
#145 = LINE ( 'NONE', #144, #143 ) ;
#146 = FACE_OUTER_BOUND ( 'NONE', #8, .T. ) ;
#147 = ORIENTED_EDGE ( 'NONE', *, *, #18, .F. ) ;
#148 = ORIENTED_EDGE ( 'NONE', *, *, #118, .T. ) ;
#149 = ORIENTED_EDGE ( 'NONE', *, *, #45, .F. ) ;
#150 = ORIENTED_EDGE ( 'NONE', *, *, #62, .T. ) ;
#151 = EDGE_LOOP ( 'NONE', ( #174, #147, #173, #210, #206, #149, #161, #47, #159, #158 ) ) ;
#152 = LINE ( 'NONE', #205, #204 ) ;
#153 = CARTESIAN_POINT ( 'NONE',  ( 100.0000000000000000, -1873.091751690878500, 2551.413128876135000 ) ) ;
#154 = VECTOR ( 'NONE', #181, 1000.000000000000000 ) ;
#155 = DIRECTION ( 'NONE',  ( -1.000000000000000000, 0.0000000000000000000, -0.0000000000000000000 ) ) ;
#156 = CARTESIAN_POINT ( 'NONE',  ( 100.0000000000000000, -1853.291751690877800, 2551.413128876135000 ) ) ;
#157 = CARTESIAN_POINT ( 'NONE',  ( 0.0000000000000000000, -1869.449787566039700, 2548.102252399008600 ) ) ;
#158 = ORIENTED_EDGE ( 'NONE', *, *, #102, .F. ) ;
#159 = ORIENTED_EDGE ( 'NONE', *, *, #90, .F. ) ;
#160 = AXIS2_PLACEMENT_3D ( 'NONE', #179, #178, #155 ) ;
#161 = ORIENTED_EDGE ( 'NONE', *, *, #6, .F. ) ;
#162 = ORIENTED_EDGE ( 'NONE', *, *, #28, .T. ) ;
#163 = AXIS2_PLACEMENT_3D ( 'NONE', #168, #167, #166 ) ;
#164 = PLANE ( 'NONE',  #165 ) ;
#165 = AXIS2_PLACEMENT_3D ( 'NONE', #131, #193, #191 ) ;
#166 = DIRECTION ( 'NONE',  ( 0.0000000000000000000, 9.470622978554209600E-014, 1.000000000000000000 ) ) ;
#167 = DIRECTION ( 'NONE',  ( 0.0000000000000000000, 1.000000000000000000, -9.470622978554209600E-014 ) ) ;
#168 = CARTESIAN_POINT ( 'NONE',  ( 100.0000000000000000, -1873.091751690878500, 2551.413128876135000 ) ) ;
#169 = FACE_OUTER_BOUND ( 'NONE', #48, .T. ) ;
#170 = ORIENTED_EDGE ( 'NONE', *, *, #14, .F. ) ;
#171 = ORIENTED_EDGE ( 'NONE', *, *, #64, .T. ) ;
#172 = ORIENTED_EDGE ( 'NONE', *, *, #93, .T. ) ;
#173 = ORIENTED_EDGE ( 'NONE', *, *, #51, .F. ) ;
#174 = ORIENTED_EDGE ( 'NONE', *, *, #76, .F. ) ;
#175 = ORIENTED_EDGE ( 'NONE', *, *, #75, .T. ) ;
#176 = ORIENTED_EDGE ( 'NONE', *, *, #3, .T. ) ;
#177 = CLOSED_SHELL ( 'NONE', ( #9, #108, #91, #87, #4, #38, #58, #50, #40, #42, #209, #190 ) ) ;
#178 = DIRECTION ( 'NONE',  ( 0.0000000000000000000, 0.0000000000000000000, -1.000000000000000000 ) ) ;
#179 = CARTESIAN_POINT ( 'NONE',  ( 100.0000000000000000, -1873.091751690878000, 2556.102252399009100 ) ) ;
#180 = ORIENTED_EDGE ( 'NONE', *, *, #17, .T. ) ;
#181 = DIRECTION ( 'NONE',  ( -0.0000000000000000000, -1.000000000000000000, -0.0000000000000000000 ) ) ;
#182 = CARTESIAN_POINT ( 'NONE',  ( 0.0000000000000000000, -1873.091751690878000, 2556.102252399009100 ) ) ;
#183 = PLANE ( 'NONE',  #142 ) ;
#184 = PLANE ( 'NONE',  #160 ) ;
#185 = DIRECTION ( 'NONE',  ( -0.0000000000000000000, -0.0000000000000000000, -1.000000000000000000 ) ) ;
#186 = DIRECTION ( 'NONE',  ( -0.0000000000000000000, -1.000000000000000000, -0.0000000000000000000 ) ) ;
#187 = VECTOR ( 'NONE', #186, 1000.000000000000000 ) ;
#188 = CARTESIAN_POINT ( 'NONE',  ( 100.0000000000000000, -1873.091751690878000, 2556.102252399009100 ) ) ;
#189 = LINE ( 'NONE', #188, #187 ) ;
#190 = ADVANCED_FACE ( 'NONE', ( #277 ), #324, .T. ) ;
#191 = DIRECTION ( 'NONE',  ( 0.0000000000000000000, -0.7399400733960458400, -0.6726727939962001700 ) ) ;
#192 = FACE_OUTER_BOUND ( 'NONE', #29, .T. ) ;
#193 = DIRECTION ( 'NONE',  ( 0.0000000000000000000, -0.6726727939962001700, 0.7399400733960458400 ) ) ;
#194 = CARTESIAN_POINT ( 'NONE',  ( 100.0000000000000000, -1869.449787566039700, 2548.102252399008600 ) ) ;
#195 = DIRECTION ( 'NONE',  ( -0.0000000000000000000, 0.7399400733960458400, 0.6726727939962001700 ) ) ;
#196 = VECTOR ( 'NONE', #195, 1000.000000000000000 ) ;
#197 = LINE ( 'NONE', #156, #196 ) ;
#198 = EDGE_CURVE ( 'NONE', #27, #31, #265, .T. ) ;
#199 = EDGE_LOOP ( 'NONE', ( #175, #172, #126, #176, #119, #124, #125, #150, #162, #148 ) ) ;
#200 = DIRECTION ( 'NONE',  ( -0.0000000000000000000, -0.0000000000000000000, 1.000000000000000000 ) ) ;
#201 = VECTOR ( 'NONE', #200, 1000.000000000000000 ) ;
#202 = LINE ( 'NONE', #140, #201 ) ;
#203 = DIRECTION ( 'NONE',  ( -1.000000000000000000, -0.0000000000000000000, -0.0000000000000000000 ) ) ;
#204 = VECTOR ( 'NONE', #203, 1000.000000000000000 ) ;
#205 = CARTESIAN_POINT ( 'NONE',  ( 100.0000000000000000, -1873.091751690878000, 2556.102252399009100 ) ) ;
#206 = ORIENTED_EDGE ( 'NONE', *, *, #198, .F. ) ;
#207 = CARTESIAN_POINT ( 'NONE',  ( 100.0000000000000000, -1856.933715815718900, 2548.102252399008200 ) ) ;
#208 = DIRECTION ( 'NONE',  ( -1.000000000000000000, -0.0000000000000000000, -0.0000000000000000000 ) ) ;
#209 = ADVANCED_FACE ( 'NONE', ( #280 ), #279, .F. ) ;
#210 = ORIENTED_EDGE ( 'NONE', *, *, #56, .F. ) ;
#211 = CARTESIAN_POINT ( 'NONE',  ( 100.0000000000000000, -1869.449787566039700, 2548.102252399008600 ) ) ;
#212 = LINE ( 'NONE', #211, #238 ) ;
#213 = FACE_OUTER_BOUND ( 'NONE', #20, .T. ) ;
#214 = DIRECTION ( 'NONE',  ( 0.0000000000000000000, -0.0000000000000000000, -1.000000000000000000 ) ) ;
#215 = DIRECTION ( 'NONE',  ( 0.0000000000000000000, -1.000000000000000000, 0.0000000000000000000 ) ) ;
#216 = CARTESIAN_POINT ( 'NONE',  ( 100.0000000000000000, -1853.291751690877800, 2556.102252399009100 ) ) ;
#217 = AXIS2_PLACEMENT_3D ( 'NONE', #216, #215, #214 ) ;
#218 = PLANE ( 'NONE',  #217 ) ;
#219 = VECTOR ( 'NONE', #228, 1000.000000000000000 ) ;
#220 = VECTOR ( 'NONE', #233, 1000.000000000000000 ) ;
#221 = LINE ( 'NONE', #235, #220 ) ;
#222 = UNCERTAINTY_MEASURE_WITH_UNIT (LENGTH_MEASURE( 1.000000000000000100E-005 ), #72, 'distance_accuracy_value', 'NONE');
#223 = PLANE ( 'NONE',  #230 ) ;
#224 = DIRECTION ( 'NONE',  ( -1.000000000000000000, -0.0000000000000000000, -0.0000000000000000000 ) ) ;
#225 = VECTOR ( 'NONE', #224, 1000.000000000000000 ) ;
#226 = CARTESIAN_POINT ( 'NONE',  ( 100.0000000000000000, -1856.933715815718900, 2548.102252399008200 ) ) ;
#227 = CARTESIAN_POINT ( 'NONE',  ( 100.0000000000000000, -1853.291751690877800, 2551.413128876135000 ) ) ;
#228 = DIRECTION ( 'NONE',  ( -0.0000000000000000000, 0.7399400733960458400, 0.6726727939962001700 ) ) ;
#229 = FACE_OUTER_BOUND ( 'NONE', #21, .T. ) ;
#230 = AXIS2_PLACEMENT_3D ( 'NONE', #236, #13, #12 ) ;
#231 = CARTESIAN_POINT ( 'NONE',  ( 0.0000000000000000000, -1853.291751690877800, 2551.413128876135000 ) ) ;
#232 = LINE ( 'NONE', #231, #219 ) ;
#233 = DIRECTION ( 'NONE',  ( -0.0000000000000000000, -9.470622978554209600E-014, -1.000000000000000000 ) ) ;
#234 = LINE ( 'NONE', #226, #225 ) ;
#235 = CARTESIAN_POINT ( 'NONE',  ( 0.0000000000000000000, -1873.091751690878500, 2551.413128876135000 ) ) ;
#236 = CARTESIAN_POINT ( 'NONE',  ( 100.0000000000000000, -1856.933715815718900, 2548.102252399008200 ) ) ;
#237 = CARTESIAN_POINT ( 'NONE',  ( 0.0000000000000000000, -1856.933715815718900, 2548.102252399008200 ) ) ;
#238 = VECTOR ( 'NONE', #248, 1000.000000000000000 ) ;
#239 = FACE_OUTER_BOUND ( 'NONE', #19, .T. ) ;
#240 = VECTOR ( 'NONE', #261, 1000.000000000000000 ) ;
#241 = CARTESIAN_POINT ( 'NONE',  ( 0.0000000000000000000, -1856.933715815718900, 2548.102252399008200 ) ) ;
#242 = AXIS2_PLACEMENT_3D ( 'NONE', #260, #259, #258 ) ;
#243 = LINE ( 'NONE', #241, #240 ) ;
#244 = VECTOR ( 'NONE', #256, 1000.000000000000000 ) ;
#245 = PLANE ( 'NONE',  #242 ) ;
#246 = LINE ( 'NONE', #250, #244 ) ;
#247 = CARTESIAN_POINT ( 'NONE',  ( 100.0000000000000000, -1873.091751690878000, 2556.102252399009100 ) ) ;
#248 = DIRECTION ( 'NONE',  ( -1.000000000000000000, -0.0000000000000000000, -0.0000000000000000000 ) ) ;
#249 = LINE ( 'NONE', #257, #60 ) ;
#250 = CARTESIAN_POINT ( 'NONE',  ( 100.0000000000000000, -1858.191751690878200, 2556.102252399009100 ) ) ;
#251 = DIRECTION ( 'NONE',  ( -0.0000000000000000000, 1.000000000000000000, -3.548151678170759300E-014 ) ) ;
#252 = VECTOR ( 'NONE', #251, 1000.000000000000000 ) ;
#253 = CARTESIAN_POINT ( 'NONE',  ( 100.0000000000000000, -1856.933715815718900, 2548.102252399008200 ) ) ;
#254 = LINE ( 'NONE', #253, #252 ) ;
#255 =( GEOMETRIC_REPRESENTATION_CONTEXT ( 3 ) GLOBAL_UNCERTAINTY_ASSIGNED_CONTEXT ( ( #222 ) ) GLOBAL_UNIT_ASSIGNED_CONTEXT ( ( #72, #121, #120 ) ) REPRESENTATION_CONTEXT ( 'NONE', 'WORKASPACE' ) );
#256 = DIRECTION ( 'NONE',  ( -1.000000000000000000, -0.0000000000000000000, -0.0000000000000000000 ) ) ;
#257 = CARTESIAN_POINT ( 'NONE',  ( 100.0000000000000000, -1853.291751690877800, 2551.413128876135000 ) ) ;
#258 = DIRECTION ( 'NONE',  ( 0.0000000000000000000, -0.7399400733958864100, 0.6726727939963754700 ) ) ;
#259 = DIRECTION ( 'NONE',  ( -0.0000000000000000000, 0.6726727939963754700, 0.7399400733958864100 ) ) ;
#260 = CARTESIAN_POINT ( 'NONE',  ( 100.0000000000000000, -1869.449787566039700, 2548.102252399008600 ) ) ;
#261 = DIRECTION ( 'NONE',  ( -0.0000000000000000000, 1.000000000000000000, -3.548151678170759300E-014 ) ) ;
#262 = LINE ( 'NONE', #302, #285 ) ;
#263 = CARTESIAN_POINT ( 'NONE',  ( 0.0000000000000000000, -1853.291751690877800, 2556.102252399009100 ) ) ;
#264 = VECTOR ( 'NONE', #273, 1000.000000000000000 ) ;
#265 = LINE ( 'NONE', #278, #264 ) ;
#266 = DIRECTION ( 'NONE',  ( 0.0000000000000000000, 0.0000000000000000000, 1.000000000000000000 ) ) ;
#267 = DIRECTION ( 'NONE',  ( -1.000000000000000000, 0.0000000000000000000, 0.0000000000000000000 ) ) ;
#268 = CARTESIAN_POINT ( 'NONE',  ( 100.0000000000000000, -1853.291751690877800, 2556.102252399009100 ) ) ;
#269 = DIRECTION ( 'NONE',  ( 0.0000000000000000000, 0.0000000000000000000, 1.000000000000000000 ) ) ;
#270 = DIRECTION ( 'NONE',  ( -1.000000000000000000, 0.0000000000000000000, 0.0000000000000000000 ) ) ;
#271 = CARTESIAN_POINT ( 'NONE',  ( 0.0000000000000000000, -1853.291751690877800, 2556.102252399009100 ) ) ;
#272 = AXIS2_PLACEMENT_3D ( 'NONE', #268, #267, #266 ) ;
#273 = DIRECTION ( 'NONE',  ( -0.0000000000000000000, 0.7399400733958865200, -0.6726727939963753600 ) ) ;
#274 = DIRECTION ( 'NONE',  ( -0.0000000000000000000, -0.0000000000000000000, 1.000000000000000000 ) ) ;
#275 = VECTOR ( 'NONE', #274, 1000.000000000000000 ) ;
#276 = LINE ( 'NONE', #321, #275 ) ;
#277 = FACE_OUTER_BOUND ( 'NONE', #151, .T. ) ;
#278 = CARTESIAN_POINT ( 'NONE',  ( 0.0000000000000000000, -1869.449787566039700, 2548.102252399008600 ) ) ;
#279 = PLANE ( 'NONE',  #272 ) ;
#280 = FACE_OUTER_BOUND ( 'NONE', #199, .T. ) ;
#281 = CARTESIAN_POINT ( 'NONE',  ( 100.0000000000000000, -1858.191751690878200, 2556.102252399009100 ) ) ;
#282 = CARTESIAN_POINT ( 'NONE',  ( 100.0000000000000000, -1858.191751690878200, 2556.102252399009100 ) ) ;
#283 = LINE ( 'NONE', #318, #316 ) ;
#284 = CARTESIAN_POINT ( 'NONE',  ( 100.0000000000000000, -1868.191751690878200, 2588.102252399008600 ) ) ;
#285 = VECTOR ( 'NONE', #290, 1000.000000000000000 ) ;
#286 = PLANE ( 'NONE',  #298 ) ;
#287 = CARTESIAN_POINT ( 'NONE',  ( 0.0000000000000000000, -1858.191751690878200, 2556.102252399009100 ) ) ;
#288 = DIRECTION ( 'NONE',  ( -0.0000000000000000000, -1.000000000000000000, -0.0000000000000000000 ) ) ;
#289 = CARTESIAN_POINT ( 'NONE',  ( 0.0000000000000000000, -1868.191751690878200, 2556.102252399009100 ) ) ;
#290 = DIRECTION ( 'NONE',  ( -1.000000000000000000, -0.0000000000000000000, -0.0000000000000000000 ) ) ;
#291 = DIRECTION ( 'NONE',  ( -0.0000000000000000000, -0.0000000000000000000, -1.000000000000000000 ) ) ;
#292 = VECTOR ( 'NONE', #291, 1000.000000000000000 ) ;
#293 = LINE ( 'NONE', #289, #292 ) ;
#294 = CARTESIAN_POINT ( 'NONE',  ( 100.0000000000000000, -1868.191751690878200, 2588.102252399008600 ) ) ;
#295 = FACE_OUTER_BOUND ( 'NONE', #85, .T. ) ;
#296 = VECTOR ( 'NONE', #309, 1000.000000000000000 ) ;
#297 = CARTESIAN_POINT ( 'NONE',  ( 0.0000000000000000000, -1868.191751690878200, 2588.102252399008600 ) ) ;
#298 = AXIS2_PLACEMENT_3D ( 'NONE', #314, #312, #311 ) ;
#299 = DIRECTION ( 'NONE',  ( -0.0000000000000000000, -1.000000000000000000, -0.0000000000000000000 ) ) ;
#300 = VECTOR ( 'NONE', #299, 1000.000000000000000 ) ;
#301 = LINE ( 'NONE', #294, #300 ) ;
#302 = CARTESIAN_POINT ( 'NONE',  ( 100.0000000000000000, -1868.191751690878200, 2588.102252399008600 ) ) ;
#303 = AXIS2_PLACEMENT_3D ( 'NONE', #304, #353, #352 ) ;
#304 = CARTESIAN_POINT ( 'NONE',  ( 100.0000000000000000, -1868.191751690878200, 2588.102252399008600 ) ) ;
#305 = LINE ( 'NONE', #351, #350 ) ;
#306 = CARTESIAN_POINT ( 'NONE',  ( 100.0000000000000000, -1858.191751690878200, 2588.102252399008600 ) ) ;
#307 = LINE ( 'NONE', #344, #343 ) ;
#308 = PLANE ( 'NONE',  #303 ) ;
#309 = DIRECTION ( 'NONE',  ( -0.0000000000000000000, -1.000000000000000000, -0.0000000000000000000 ) ) ;
#310 = CARTESIAN_POINT ( 'NONE',  ( 0.0000000000000000000, -1868.191751690878200, 2588.102252399008600 ) ) ;
#311 = DIRECTION ( 'NONE',  ( 0.0000000000000000000, -0.0000000000000000000, 1.000000000000000000 ) ) ;
#312 = DIRECTION ( 'NONE',  ( 0.0000000000000000000, 1.000000000000000000, 0.0000000000000000000 ) ) ;
#313 = LINE ( 'NONE', #297, #296 ) ;
#314 = CARTESIAN_POINT ( 'NONE',  ( 100.0000000000000000, -1868.191751690878200, 2556.102252399009100 ) ) ;
#315 = DIRECTION ( 'NONE',  ( -0.0000000000000000000, -1.000000000000000000, -0.0000000000000000000 ) ) ;
#316 = VECTOR ( 'NONE', #315, 1000.000000000000000 ) ;
#317 = FACE_OUTER_BOUND ( 'NONE', #88, .T. ) ;
#318 = CARTESIAN_POINT ( 'NONE',  ( 0.0000000000000000000, -1858.191751690878200, 2556.102252399009100 ) ) ;
#319 = VECTOR ( 'NONE', #288, 1000.000000000000000 ) ;
#320 = LINE ( 'NONE', #282, #319 ) ;
#321 = CARTESIAN_POINT ( 'NONE',  ( 100.0000000000000000, -1853.291751690877800, 2556.102252399009100 ) ) ;
#322 = DIRECTION ( 'NONE',  ( 0.0000000000000000000, -0.0000000000000000000, -1.000000000000000000 ) ) ;
#323 = AXIS2_PLACEMENT_3D ( 'NONE', #271, #270, #269 ) ;
#324 = PLANE ( 'NONE',  #323 ) ;
#325 = FACE_OUTER_BOUND ( 'NONE', #69, .T. ) ;
#326 = AXIS2_PLACEMENT_3D ( 'NONE', #341, #340, #322 ) ;
#327 = DIRECTION ( 'NONE',  ( -1.000000000000000000, -0.0000000000000000000, -0.0000000000000000000 ) ) ;
#328 = VECTOR ( 'NONE', #327, 1000.000000000000000 ) ;
#329 = CARTESIAN_POINT ( 'NONE',  ( 100.0000000000000000, -1853.291751690877800, 2556.102252399009100 ) ) ;
#330 = CARTESIAN_POINT ( 'NONE',  ( 100.0000000000000000, -1853.291751690877800, 2556.102252399009100 ) ) ;
#331 = LINE ( 'NONE', #329, #328 ) ;
#332 = DIRECTION ( 'NONE',  ( -1.000000000000000000, -0.0000000000000000000, -0.0000000000000000000 ) ) ;
#333 = VECTOR ( 'NONE', #332, 1000.000000000000000 ) ;
#334 = CARTESIAN_POINT ( 'NONE',  ( 100.0000000000000000, -1868.191751690878200, 2556.102252399009100 ) ) ;
#335 = LINE ( 'NONE', #334, #333 ) ;
#336 = PLANE ( 'NONE',  #326 ) ;
#337 = DIRECTION ( 'NONE',  ( -0.0000000000000000000, -0.0000000000000000000, 1.000000000000000000 ) ) ;
#338 = VECTOR ( 'NONE', #337, 1000.000000000000000 ) ;
#339 = LINE ( 'NONE', #347, #338 ) ;
#340 = DIRECTION ( 'NONE',  ( 0.0000000000000000000, -1.000000000000000000, 0.0000000000000000000 ) ) ;
#341 = CARTESIAN_POINT ( 'NONE',  ( 100.0000000000000000, -1858.191751690878200, 2588.102252399008600 ) ) ;
#342 = DIRECTION ( 'NONE',  ( -1.000000000000000000, -0.0000000000000000000, -0.0000000000000000000 ) ) ;
#343 = VECTOR ( 'NONE', #342, 1000.000000000000000 ) ;
#344 = CARTESIAN_POINT ( 'NONE',  ( 100.0000000000000000, -1858.191751690878200, 2588.102252399008600 ) ) ;
#345 = CARTESIAN_POINT ( 'NONE',  ( 0.0000000000000000000, -1868.191751690878200, 2556.102252399009100 ) ) ;
#346 = CARTESIAN_POINT ( 'NONE',  ( 0.0000000000000000000, -1858.191751690878200, 2588.102252399008600 ) ) ;
#347 = CARTESIAN_POINT ( 'NONE',  ( 0.0000000000000000000, -1858.191751690878200, 2588.102252399008600 ) ) ;
#348 = CARTESIAN_POINT ( 'NONE',  ( 100.0000000000000000, -1868.191751690878200, 2556.102252399009100 ) ) ;
#349 = DIRECTION ( 'NONE',  ( -0.0000000000000000000, -0.0000000000000000000, 1.000000000000000000 ) ) ;
#350 = VECTOR ( 'NONE', #349, 1000.000000000000000 ) ;
#351 = CARTESIAN_POINT ( 'NONE',  ( 100.0000000000000000, -1858.191751690878200, 2588.102252399008600 ) ) ;
#352 = DIRECTION ( 'NONE',  ( -1.000000000000000000, 0.0000000000000000000, -0.0000000000000000000 ) ) ;
#353 = DIRECTION ( 'NONE',  ( 0.0000000000000000000, 0.0000000000000000000, -1.000000000000000000 ) ) ;
#354 = ORGANIZATION ( 'NON SPECIFICATO', 'NON SPECIFICATO', '' ) ;
#355 = PRODUCT_DEFINITION_SHAPE ( 'NONE', 'NONE',  #411 ) ;
#356 = PRODUCT_RELATED_PRODUCT_CATEGORY ( 'detail', '', ( #401 ) ) ;
#357 = CC_DESIGN_PERSON_AND_ORGANIZATION_ASSIGNMENT ( #359, #358, ( #411 ) ) ;
#358 = PERSON_AND_ORGANIZATION_ROLE ( 'creator' ) ;
#359 = PERSON_AND_ORGANIZATION ( #400, #354 ) ;
#360 = CC_DESIGN_APPROVAL ( #408, ( #411 ) ) ;
#361 = APPROVAL_DATE_TIME ( #362, #408 ) ;
#362 = DATE_AND_TIME ( #363, #364 ) ;
#363 = CALENDAR_DATE ( 2013, 28, 1 ) ;
#364 = LOCAL_TIME ( 14, 20, 19.00000000000000000, #405 ) ;
#365 = CC_DESIGN_SECURITY_CLASSIFICATION ( #386, ( #425 ) ) ;
#366 = CC_DESIGN_APPROVAL ( #374, ( #386 ) ) ;
#367 = APPROVAL_DATE_TIME ( #368, #374 ) ;
#368 = DATE_AND_TIME ( #369, #370 ) ;
#369 = CALENDAR_DATE ( 2013, 28, 1 ) ;
#370 = LOCAL_TIME ( 14, 20, 19.00000000000000000, #371 ) ;
#371 = COORDINATED_UNIVERSAL_TIME_OFFSET ( 1, 0, .AHEAD. ) ;
#372 = APPROVAL_PERSON_ORGANIZATION ( #376, #374, #373 ) ;
#373 = APPROVAL_ROLE ( '' ) ;
#374 = APPROVAL ( #375, 'NON SPECIFICATO' ) ;
#375 = APPROVAL_STATUS ( 'not_yet_approved' ) ;
#376 = PERSON_AND_ORGANIZATION ( #400, #354 ) ;
#377 = CC_DESIGN_DATE_AND_TIME_ASSIGNMENT ( #379, #378, ( #386 ) ) ;
#378 = DATE_TIME_ROLE ( 'classification_date' ) ;
#379 = DATE_AND_TIME ( #380, #381 ) ;
#380 = CALENDAR_DATE ( 2013, 28, 1 ) ;
#381 = LOCAL_TIME ( 14, 20, 19.00000000000000000, #382 ) ;
#382 = COORDINATED_UNIVERSAL_TIME_OFFSET ( 1, 0, .AHEAD. ) ;
#383 = CC_DESIGN_PERSON_AND_ORGANIZATION_ASSIGNMENT ( #385, #384, ( #386 ) ) ;
#384 = PERSON_AND_ORGANIZATION_ROLE ( 'classification_officer' ) ;
#385 = PERSON_AND_ORGANIZATION ( #400, #354 ) ;
#386 = SECURITY_CLASSIFICATION ( '', '', #387 ) ;
#387 = SECURITY_CLASSIFICATION_LEVEL ( 'unclassified' ) ;
#388 = CC_DESIGN_PERSON_AND_ORGANIZATION_ASSIGNMENT ( #390, #389, ( #425 ) ) ;
#389 = PERSON_AND_ORGANIZATION_ROLE ( 'design_supplier' ) ;
#390 = PERSON_AND_ORGANIZATION ( #400, #354 ) ;
#391 = CC_DESIGN_PERSON_AND_ORGANIZATION_ASSIGNMENT ( #393, #392, ( #425 ) ) ;
#392 = PERSON_AND_ORGANIZATION_ROLE ( 'creator' ) ;
#393 = PERSON_AND_ORGANIZATION ( #400, #354 ) ;
#394 = CC_DESIGN_APPROVAL ( #422, ( #425 ) ) ;
#395 = APPROVAL_DATE_TIME ( #396, #422 ) ;
#396 = DATE_AND_TIME ( #417, #418 ) ;
#397 = CC_DESIGN_PERSON_AND_ORGANIZATION_ASSIGNMENT ( #399, #398, ( #401 ) ) ;
#398 = PERSON_AND_ORGANIZATION_ROLE ( 'design_owner' ) ;
#399 = PERSON_AND_ORGANIZATION ( #400, #354 ) ;
#400 = PERSON ( 'NON SPECIFICATO', 'NON SPECIFICATO', 'NON SPECIFICATO', ('NON SPECIFICATO'), ('NON SPECIFICATO'), ('NON SPECIFICATO') ) ;
#401 = PRODUCT ( '084.514.012', '084.514.012', '', ( #402 ) ) ;
#402 = MECHANICAL_CONTEXT ( 'NONE', #434, 'mechanical' ) ;
#403 = APPLICATION_PROTOCOL_DEFINITION ( 'international standard', 'config_control_design', 1994, #434 ) ;
#404 = CARTESIAN_POINT ( 'NONE',  ( 0.0000000000000000000, 0.0000000000000000000, 0.0000000000000000000 ) ) ;
#405 = COORDINATED_UNIVERSAL_TIME_OFFSET ( 1, 0, .AHEAD. ) ;
#406 = APPROVAL_PERSON_ORGANIZATION ( #410, #408, #407 ) ;
#407 = APPROVAL_ROLE ( '' ) ;
#408 = APPROVAL ( #409, 'NON SPECIFICATO' ) ;
#409 = APPROVAL_STATUS ( 'not_yet_approved' ) ;
#410 = PERSON_AND_ORGANIZATION ( #400, #354 ) ;
#411 = PRODUCT_DEFINITION ( 'NON CONOSCIUTO', '', #425, #412 ) ;
#412 = DESIGN_CONTEXT ( 'detailed design', #414, 'design' ) ;
#413 = APPLICATION_PROTOCOL_DEFINITION ( 'international standard', 'config_control_design', 1994, #414 ) ;
#414 = APPLICATION_CONTEXT ( 'configuration controlled 3d designs of mechanical parts and assemblies' ) ;
#415 = SHAPE_DEFINITION_REPRESENTATION ( #355, #433 ) ;
#416 = DIRECTION ( 'NONE',  ( 1.000000000000000000, 0.0000000000000000000, 0.0000000000000000000 ) ) ;
#417 = CALENDAR_DATE ( 2013, 28, 1 ) ;
#418 = LOCAL_TIME ( 14, 20, 19.00000000000000000, #419 ) ;
#419 = COORDINATED_UNIVERSAL_TIME_OFFSET ( 1, 0, .AHEAD. ) ;
#420 = APPROVAL_PERSON_ORGANIZATION ( #424, #422, #421 ) ;
#421 = APPROVAL_ROLE ( '' ) ;
#422 = APPROVAL ( #423, 'NON SPECIFICATO' ) ;
#423 = APPROVAL_STATUS ( 'not_yet_approved' ) ;
#424 = PERSON_AND_ORGANIZATION ( #400, #354 ) ;
#425 = PRODUCT_DEFINITION_FORMATION_WITH_SPECIFIED_SOURCE ( 'TUTTO', '', #401, .NOT_KNOWN. ) ;
#426 = CC_DESIGN_DATE_AND_TIME_ASSIGNMENT ( #428, #427, ( #411 ) ) ;
#427 = DATE_TIME_ROLE ( 'creation_date' ) ;
#428 = DATE_AND_TIME ( #429, #430 ) ;
#429 = CALENDAR_DATE ( 2013, 28, 1 ) ;
#430 = LOCAL_TIME ( 14, 20, 19.00000000000000000, #431 ) ;
#431 = COORDINATED_UNIVERSAL_TIME_OFFSET ( 1, 0, .AHEAD. ) ;
#432 = AXIS2_PLACEMENT_3D ( 'NONE', #404, #435, #416 ) ;
#433 = ADVANCED_BREP_SHAPE_REPRESENTATION ( '084.514.012', ( #11, #432 ), #255 ) ;
#434 = APPLICATION_CONTEXT ( 'configuration controlled 3d designs of mechanical parts and assemblies' ) ;
#435 = DIRECTION ( 'NONE',  ( 0.0000000000000000000, 0.0000000000000000000, 1.000000000000000000 ) ) ;
ENDSEC;
END-ISO-10303-21;
