ISO-10303-21;
HEADER;
FILE_DESCRIPTION (( 'STEP AP203' ),
    '1' );
FILE_NAME ('084.514.003.STEP',
    '2013-01-28T13:14:42',
    ( 'Alusic' ),
    ( 'Alusic' ),
    'SwSTEP 2.0',
    'SolidWorks 2011',
    '' );
FILE_SCHEMA (( 'CONFIG_CONTROL_DESIGN' ));
ENDSEC;

DATA;
#1 = EDGE_LOOP ( 'NONE', ( #8, #26, #28, #23 ) ) ;
#2 = PERSON_AND_ORGANIZATION ( #326, #419 ) ;
#3 = ORIENTED_EDGE ( 'NONE', *, *, #9, .F. ) ;
#4 = CC_DESIGN_PERSON_AND_ORGANIZATION_ASSIGNMENT ( #2, #5, ( #359 ) ) ;
#5 = PERSON_AND_ORGANIZATION_ROLE ( 'classification_officer' ) ;
#6 = EDGE_CURVE ( 'NONE', #14, #7, #228, .T. ) ;
#7 = VERTEX_POINT ( 'NONE', #232 ) ;
#8 = ORIENTED_EDGE ( 'NONE', *, *, #249, .T. ) ;
#9 = EDGE_CURVE ( 'NONE', #173, #247, #233, .T. ) ;
#10 = ADVANCED_FACE ( 'NONE', ( #236 ), #217, .F. ) ;
#11 = ORIENTED_EDGE ( 'NONE', *, *, #127, .T. ) ;
#12 = ORIENTED_EDGE ( 'NONE', *, *, #110, .T. ) ;
#13 = ORIENTED_EDGE ( 'NONE', *, *, #171, .F. ) ;
#14 = VERTEX_POINT ( 'NONE', #212 ) ;
#15 = ORIENTED_EDGE ( 'NONE', *, *, #35, .T. ) ;
#16 = ORIENTED_EDGE ( 'NONE', *, *, #241, .T. ) ;
#17 = ORIENTED_EDGE ( 'NONE', *, *, #122, .T. ) ;
#18 = ORIENTED_EDGE ( 'NONE', *, *, #90, .T. ) ;
#19 = ORIENTED_EDGE ( 'NONE', *, *, #9, .T. ) ;
#20 = ORIENTED_EDGE ( 'NONE', *, *, #87, .F. ) ;
#21 = ORIENTED_EDGE ( 'NONE', *, *, #120, .F. ) ;
#22 = ORIENTED_EDGE ( 'NONE', *, *, #76, .F. ) ;
#23 = ORIENTED_EDGE ( 'NONE', *, *, #6, .T. ) ;
#24 = CLOSED_SHELL ( 'NONE', ( #61, #38, #83, #71, #111, #66, #108, #156, #98, #27, #10, #103 ) ) ;
#25 = COORDINATED_UNIVERSAL_TIME_OFFSET ( 1, 0, .AHEAD. ) ;
#26 = ORIENTED_EDGE ( 'NONE', *, *, #37, .F. ) ;
#27 = ADVANCED_FACE ( 'NONE', ( #230 ), #221, .F. ) ;
#28 = ORIENTED_EDGE ( 'NONE', *, *, #35, .F. ) ;
#29 = EDGE_LOOP ( 'NONE', ( #60, #18, #11, #245, #17, #12, #16, #19, #100, #15 ) ) ;
#30 = ORIENTED_EDGE ( 'NONE', *, *, #96, .T. ) ;
#31 = VECTOR ( 'NONE', #33, 1000.000000000000000 ) ;
#32 = DATE_TIME_ROLE ( 'classification_date' ) ;
#33 = DIRECTION ( 'NONE',  ( -1.000000000000000000, -0.0000000000000000000, -0.0000000000000000000 ) ) ;
#34 = VERTEX_POINT ( 'NONE', #229 ) ;
#35 = EDGE_CURVE ( 'NONE', #14, #34, #213, .T. ) ;
#36 = EDGE_CURVE ( 'NONE', #44, #49, #200, .T. ) ;
#37 = EDGE_CURVE ( 'NONE', #34, #48, #195, .T. ) ;
#38 = ADVANCED_FACE ( 'NONE', ( #216 ), #191, .F. ) ;
#39 = EDGE_LOOP ( 'NONE', ( #30, #42, #97, #41 ) ) ;
#40 = ORIENTED_EDGE ( 'NONE', *, *, #76, .T. ) ;
#41 = ORIENTED_EDGE ( 'NONE', *, *, #37, .T. ) ;
#42 = ORIENTED_EDGE ( 'NONE', *, *, #36, .F. ) ;
#43 = EDGE_CURVE ( 'NONE', #34, #44, #183, .T. ) ;
#44 = VERTEX_POINT ( 'NONE', #206 ) ;
#45 = CC_DESIGN_DATE_AND_TIME_ASSIGNMENT ( #46, #32, ( #359 ) ) ;
#46 = DATE_AND_TIME ( #47, #57 ) ;
#47 = CALENDAR_DATE ( 2013, 28, 1 ) ;
#48 = VERTEX_POINT ( 'NONE', #187 ) ;
#49 = VERTEX_POINT ( 'NONE', #201 ) ;
#50 = COORDINATED_UNIVERSAL_TIME_OFFSET ( 1, 0, .AHEAD. ) ;
#51 = APPROVAL_PERSON_ORGANIZATION ( #55, #53, #52 ) ;
#52 = APPROVAL_ROLE ( '' ) ;
#53 = APPROVAL ( #54, 'NON SPECIFICATO' ) ;
#54 = APPROVAL_STATUS ( 'not_yet_approved' ) ;
#55 = PERSON_AND_ORGANIZATION ( #326, #419 ) ;
#56 = MANIFOLD_SOLID_BREP ( 'Elemento strutturale1', #24 ) ;
#57 = LOCAL_TIME ( 14, 14, 42.00000000000000000, #25 ) ;
#58 = LINE ( 'NONE', #59, #31 ) ;
#59 = CARTESIAN_POINT ( 'NONE',  ( 100.0000000000000000, 3.500000000000000900, -7.041486534478675200E-016 ) ) ;
#60 = ORIENTED_EDGE ( 'NONE', *, *, #43, .T. ) ;
#61 = ADVANCED_FACE ( 'NONE', ( #188 ), #180, .F. ) ;
#62 = EDGE_LOOP ( 'NONE', ( #73, #70, #80, #63 ) ) ;
#63 = ORIENTED_EDGE ( 'NONE', *, *, #117, .T. ) ;
#64 = ORIENTED_EDGE ( 'NONE', *, *, #127, .F. ) ;
#65 = EDGE_CURVE ( 'NONE', #124, #116, #179, .T. ) ;
#66 = ADVANCED_FACE ( 'NONE', ( #148 ), #144, .F. ) ;
#67 = ORIENTED_EDGE ( 'NONE', *, *, #125, .F. ) ;
#68 = ORIENTED_EDGE ( 'NONE', *, *, #122, .F. ) ;
#69 = EDGE_CURVE ( 'NONE', #79, #121, #184, .T. ) ;
#70 = ORIENTED_EDGE ( 'NONE', *, *, #69, .F. ) ;
#71 = ADVANCED_FACE ( 'NONE', ( #137 ), #185, .F. ) ;
#72 = ORIENTED_EDGE ( 'NONE', *, *, #65, .F. ) ;
#73 = ORIENTED_EDGE ( 'NONE', *, *, #128, .T. ) ;
#74 = ORIENTED_EDGE ( 'NONE', *, *, #94, .T. ) ;
#75 = EDGE_CURVE ( 'NONE', #113, #79, #167, .T. ) ;
#76 = EDGE_CURVE ( 'NONE', #129, #238, #163, .T. ) ;
#77 = EDGE_CURVE ( 'NONE', #116, #129, #138, .T. ) ;
#78 = VERTEX_POINT ( 'NONE', #261 ) ;
#79 = VERTEX_POINT ( 'NONE', #282 ) ;
#80 = ORIENTED_EDGE ( 'NONE', *, *, #75, .F. ) ;
#81 = ORIENTED_EDGE ( 'NONE', *, *, #94, .F. ) ;
#82 = VERTEX_POINT ( 'NONE', #303 ) ;
#83 = ADVANCED_FACE ( 'NONE', ( #260 ), #270, .F. ) ;
#84 = VERTEX_POINT ( 'NONE', #290 ) ;
#85 = ORIENTED_EDGE ( 'NONE', *, *, #90, .F. ) ;
#86 = ORIENTED_EDGE ( 'NONE', *, *, #87, .T. ) ;
#87 = EDGE_CURVE ( 'NONE', #95, #84, #304, .T. ) ;
#88 = ORIENTED_EDGE ( 'NONE', *, *, #89, .T. ) ;
#89 = EDGE_CURVE ( 'NONE', #49, #95, #265, .T. ) ;
#90 = EDGE_CURVE ( 'NONE', #44, #82, #292, .T. ) ;
#91 = ORIENTED_EDGE ( 'NONE', *, *, #36, .T. ) ;
#92 = EDGE_LOOP ( 'NONE', ( #86, #112, #64, #74 ) ) ;
#93 = EDGE_LOOP ( 'NONE', ( #88, #81, #85, #91 ) ) ;
#94 = EDGE_CURVE ( 'NONE', #82, #95, #300, .T. ) ;
#95 = VERTEX_POINT ( 'NONE', #325 ) ;
#96 = EDGE_CURVE ( 'NONE', #48, #49, #267, .T. ) ;
#97 = ORIENTED_EDGE ( 'NONE', *, *, #43, .F. ) ;
#98 = ADVANCED_FACE ( 'NONE', ( #276 ), #269, .F. ) ;
#99 = EDGE_LOOP ( 'NONE', ( #101, #102, #105, #13, #22, #104, #21, #106, #20, #107 ) ) ;
#100 = ORIENTED_EDGE ( 'NONE', *, *, #154, .T. ) ;
#101 = ORIENTED_EDGE ( 'NONE', *, *, #96, .F. ) ;
#102 = ORIENTED_EDGE ( 'NONE', *, *, #249, .F. ) ;
#103 = ADVANCED_FACE ( 'NONE', ( #268 ), #266, .T. ) ;
#104 = ORIENTED_EDGE ( 'NONE', *, *, #77, .F. ) ;
#105 = ORIENTED_EDGE ( 'NONE', *, *, #225, .F. ) ;
#106 = ORIENTED_EDGE ( 'NONE', *, *, #128, .F. ) ;
#107 = ORIENTED_EDGE ( 'NONE', *, *, #89, .F. ) ;
#108 = ADVANCED_FACE ( 'NONE', ( #289 ), #275, .F. ) ;
#109 = EDGE_LOOP ( 'NONE', ( #40, #240, #177, #175 ) ) ;
#110 = EDGE_CURVE ( 'NONE', #124, #78, #285, .T. ) ;
#111 = ADVANCED_FACE ( 'NONE', ( #259 ), #252, .F. ) ;
#112 = ORIENTED_EDGE ( 'NONE', *, *, #117, .F. ) ;
#113 = VERTEX_POINT ( 'NONE', #257 ) ;
#114 = ORIENTED_EDGE ( 'NONE', *, *, #110, .F. ) ;
#115 = EDGE_LOOP ( 'NONE', ( #123, #67, #114, #126 ) ) ;
#116 = VERTEX_POINT ( 'NONE', #323 ) ;
#117 = EDGE_CURVE ( 'NONE', #113, #84, #301, .T. ) ;
#118 = ORIENTED_EDGE ( 'NONE', *, *, #69, .T. ) ;
#119 = ORIENTED_EDGE ( 'NONE', *, *, #120, .T. ) ;
#120 = EDGE_CURVE ( 'NONE', #121, #116, #322, .T. ) ;
#121 = VERTEX_POINT ( 'NONE', #296 ) ;
#122 = EDGE_CURVE ( 'NONE', #79, #124, #312, .T. ) ;
#123 = ORIENTED_EDGE ( 'NONE', *, *, #77, .T. ) ;
#124 = VERTEX_POINT ( 'NONE', #286 ) ;
#125 = EDGE_CURVE ( 'NONE', #78, #129, #58, .T. ) ;
#126 = ORIENTED_EDGE ( 'NONE', *, *, #65, .T. ) ;
#127 = EDGE_CURVE ( 'NONE', #82, #113, #342, .T. ) ;
#128 = EDGE_CURVE ( 'NONE', #84, #121, #420, .T. ) ;
#129 = VERTEX_POINT ( 'NONE', #380 ) ;
#130 = EDGE_LOOP ( 'NONE', ( #119, #72, #68, #118 ) ) ;
#131 = DIRECTION ( 'NONE',  ( 0.0000000000000000000, 1.000000000000000000, -1.577021341797097600E-016 ) ) ;
#132 = CARTESIAN_POINT ( 'NONE',  ( 100.0000000000000000, -5.000000000000000900, 1.499999999999999100 ) ) ;
#133 = CARTESIAN_POINT ( 'NONE',  ( 100.0000000000000000, -5.000000000000000900, 1.499999999999999100 ) ) ;
#134 = DIRECTION ( 'NONE',  ( -1.000000000000000000, -0.0000000000000000000, -0.0000000000000000000 ) ) ;
#135 = VECTOR ( 'NONE', #134, 1000.000000000000000 ) ;
#136 = CARTESIAN_POINT ( 'NONE',  ( 100.0000000000000000, -5.000000000000000900, 1.499999999999999100 ) ) ;
#137 = FACE_OUTER_BOUND ( 'NONE', #62, .T. ) ;
#138 = LINE ( 'NONE', #159, #158 ) ;
#139 = DIRECTION ( 'NONE',  ( -0.0000000000000000000, -1.577021341797097600E-016, -1.000000000000000000 ) ) ;
#140 = DIRECTION ( 'NONE',  ( 0.0000000000000000000, -1.000000000000000000, 1.375664245990882500E-032 ) ) ;
#141 = DIRECTION ( 'NONE',  ( -0.0000000000000000000, 1.375664245990882500E-032, 1.000000000000000000 ) ) ;
#142 = LOCAL_TIME ( 14, 14, 42.00000000000000000, #50 ) ;
#143 = PRODUCT_RELATED_PRODUCT_CATEGORY ( 'detail', '', ( #327 ) ) ;
#144 = PLANE ( 'NONE',  #151 ) ;
#145 = CARTESIAN_POINT ( 'NONE',  ( 0.0000000000000000000, 5.000000000000000900, 1.499999999999999100 ) ) ;
#146 = DIRECTION ( 'NONE',  ( -1.000000000000000000, -0.0000000000000000000, -0.0000000000000000000 ) ) ;
#147 = VECTOR ( 'NONE', #146, 1000.000000000000000 ) ;
#148 = FACE_OUTER_BOUND ( 'NONE', #115, .T. ) ;
#149 = CC_DESIGN_APPROVAL ( #53, ( #359 ) ) ;
#150 = DIRECTION ( 'NONE',  ( -1.000000000000000000, 0.0000000000000000000, -0.0000000000000000000 ) ) ;
#151 = AXIS2_PLACEMENT_3D ( 'NONE', #189, #141, #140 ) ;
#152 = CARTESIAN_POINT ( 'NONE',  ( 100.0000000000000000, -3.500000000000000900, -7.041486534478674200E-016 ) ) ;
#153 = ORIENTED_EDGE ( 'NONE', *, *, #154, .F. ) ;
#154 = EDGE_CURVE ( 'NONE', #247, #14, #428, .T. ) ;
#155 = ORIENTED_EDGE ( 'NONE', *, *, #6, .F. ) ;
#156 = ADVANCED_FACE ( 'NONE', ( #421 ), #386, .F. ) ;
#157 = DIRECTION ( 'NONE',  ( -0.0000000000000000000, 1.000000000000000000, -1.375664245990882500E-032 ) ) ;
#158 = VECTOR ( 'NONE', #157, 1000.000000000000000 ) ;
#159 = CARTESIAN_POINT ( 'NONE',  ( 0.0000000000000000000, 3.500000000000000900, -7.041486534478675200E-016 ) ) ;
#160 = CC_DESIGN_SECURITY_CLASSIFICATION ( #359, ( #378 ) ) ;
#161 = DIRECTION ( 'NONE',  ( -0.0000000000000000000, 0.7071067811865475700, 0.7071067811865474600 ) ) ;
#162 = VECTOR ( 'NONE', #161, 1000.000000000000000 ) ;
#163 = LINE ( 'NONE', #145, #162 ) ;
#164 = PRODUCT_DEFINITION_SHAPE ( 'NONE', 'NONE',  #412 ) ;
#165 = DATE_AND_TIME ( #168, #142 ) ;
#166 = VECTOR ( 'NONE', #139, 1000.000000000000000 ) ;
#167 = LINE ( 'NONE', #133, #166 ) ;
#168 = CALENDAR_DATE ( 2013, 28, 1 ) ;
#169 = APPROVAL_DATE_TIME ( #165, #53 ) ;
#170 = DIRECTION ( 'NONE',  ( 0.0000000000000000000, 1.577021341797097600E-016, 1.000000000000000000 ) ) ;
#171 = EDGE_CURVE ( 'NONE', #238, #176, #390, .T. ) ;
#172 = ORIENTED_EDGE ( 'NONE', *, *, #244, .T. ) ;
#173 = VERTEX_POINT ( 'NONE', #384 ) ;
#174 = ORIENTED_EDGE ( 'NONE', *, *, #243, .T. ) ;
#175 = ORIENTED_EDGE ( 'NONE', *, *, #125, .T. ) ;
#176 = VERTEX_POINT ( 'NONE', #427 ) ;
#177 = ORIENTED_EDGE ( 'NONE', *, *, #241, .F. ) ;
#178 = CARTESIAN_POINT ( 'NONE',  ( 100.0000000000000000, -3.000000000000000000, 23.00000000000000000 ) ) ;
#179 = LINE ( 'NONE', #152, #147 ) ;
#180 = PLANE ( 'NONE',  #222 ) ;
#181 = DIRECTION ( 'NONE',  ( -0.0000000000000000000, -1.000000000000000000, -0.0000000000000000000 ) ) ;
#182 = VECTOR ( 'NONE', #181, 1000.000000000000000 ) ;
#183 = LINE ( 'NONE', #197, #182 ) ;
#184 = LINE ( 'NONE', #136, #135 ) ;
#185 = PLANE ( 'NONE',  #190 ) ;
#186 = DIRECTION ( 'NONE',  ( 0.0000000000000000000, -0.0000000000000000000, 1.000000000000000000 ) ) ;
#187 = CARTESIAN_POINT ( 'NONE',  ( 0.0000000000000000000, 3.000000000000000000, 23.00000000000000000 ) ) ;
#188 = FACE_OUTER_BOUND ( 'NONE', #39, .T. ) ;
#189 = CARTESIAN_POINT ( 'NONE',  ( 100.0000000000000000, 3.500000000000000900, -7.041486534478675200E-016 ) ) ;
#190 = AXIS2_PLACEMENT_3D ( 'NONE', #132, #131, #170 ) ;
#191 = PLANE ( 'NONE',  #223 ) ;
#192 = DIRECTION ( 'NONE',  ( -1.000000000000000000, -0.0000000000000000000, -0.0000000000000000000 ) ) ;
#193 = VECTOR ( 'NONE', #192, 1000.000000000000000 ) ;
#194 = CARTESIAN_POINT ( 'NONE',  ( 100.0000000000000000, 3.000000000000000000, 23.00000000000000000 ) ) ;
#195 = LINE ( 'NONE', #194, #193 ) ;
#196 = DIRECTION ( 'NONE',  ( 0.0000000000000000000, 1.000000000000000000, 0.0000000000000000000 ) ) ;
#197 = CARTESIAN_POINT ( 'NONE',  ( 100.0000000000000000, -3.000000000000000000, 23.00000000000000000 ) ) ;
#198 = DIRECTION ( 'NONE',  ( -1.000000000000000000, -0.0000000000000000000, -0.0000000000000000000 ) ) ;
#199 = VECTOR ( 'NONE', #198, 1000.000000000000000 ) ;
#200 = LINE ( 'NONE', #211, #199 ) ;
#201 = CARTESIAN_POINT ( 'NONE',  ( 0.0000000000000000000, -3.000000000000000000, 23.00000000000000000 ) ) ;
#202 = CARTESIAN_POINT ( 'NONE',  ( 100.0000000000000000, -3.000000000000000000, 7.000000000000000000 ) ) ;
#203 = DIRECTION ( 'NONE',  ( -0.0000000000000000000, -0.0000000000000000000, 1.000000000000000000 ) ) ;
#204 = VECTOR ( 'NONE', #203, 1000.000000000000000 ) ;
#205 = CARTESIAN_POINT ( 'NONE',  ( 100.0000000000000000, 3.000000000000000000, 23.00000000000000000 ) ) ;
#206 = CARTESIAN_POINT ( 'NONE',  ( 100.0000000000000000, -3.000000000000000000, 23.00000000000000000 ) ) ;
#207 = DIRECTION ( 'NONE',  ( 0.0000000000000000000, 0.0000000000000000000, -1.000000000000000000 ) ) ;
#208 = DIRECTION ( 'NONE',  ( 0.0000000000000000000, -0.0000000000000000000, -1.000000000000000000 ) ) ;
#209 = DIRECTION ( 'NONE',  ( 0.0000000000000000000, -1.000000000000000000, 0.0000000000000000000 ) ) ;
#210 = CARTESIAN_POINT ( 'NONE',  ( 100.0000000000000000, 3.000000000000000000, 23.00000000000000000 ) ) ;
#211 = CARTESIAN_POINT ( 'NONE',  ( 100.0000000000000000, -3.000000000000000000, 23.00000000000000000 ) ) ;
#212 = CARTESIAN_POINT ( 'NONE',  ( 100.0000000000000000, 3.000000000000000000, 7.000000000000000000 ) ) ;
#213 = LINE ( 'NONE', #205, #204 ) ;
#214 = DIRECTION ( 'NONE',  ( 0.0000000000000000000, 0.0000000000000000000, 1.000000000000000000 ) ) ;
#215 = DIRECTION ( 'NONE',  ( -1.000000000000000000, 0.0000000000000000000, 0.0000000000000000000 ) ) ;
#216 = FACE_OUTER_BOUND ( 'NONE', #93, .T. ) ;
#217 = PLANE ( 'NONE',  #235 ) ;
#218 = DIRECTION ( 'NONE',  ( -0.0000000000000000000, -1.577021341797097600E-016, 1.000000000000000000 ) ) ;
#219 = VECTOR ( 'NONE', #218, 1000.000000000000000 ) ;
#220 = CARTESIAN_POINT ( 'NONE',  ( 100.0000000000000000, 5.000000000000000000, 6.999999999999999100 ) ) ;
#221 = PLANE ( 'NONE',  #234 ) ;
#222 = AXIS2_PLACEMENT_3D ( 'NONE', #178, #207, #150 ) ;
#223 = AXIS2_PLACEMENT_3D ( 'NONE', #202, #196, #186 ) ;
#224 = DIRECTION ( 'NONE',  ( -1.000000000000000000, -0.0000000000000000000, -0.0000000000000000000 ) ) ;
#225 = EDGE_CURVE ( 'NONE', #176, #7, #382, .T. ) ;
#226 = VECTOR ( 'NONE', #224, 1000.000000000000000 ) ;
#227 = CARTESIAN_POINT ( 'NONE',  ( 100.0000000000000000, 3.000000000000000000, 7.000000000000000000 ) ) ;
#228 = LINE ( 'NONE', #227, #226 ) ;
#229 = CARTESIAN_POINT ( 'NONE',  ( 100.0000000000000000, 3.000000000000000000, 23.00000000000000000 ) ) ;
#230 = FACE_OUTER_BOUND ( 'NONE', #1, .T. ) ;
#231 = CARTESIAN_POINT ( 'NONE',  ( 100.0000000000000000, 3.000000000000000000, 23.00000000000000000 ) ) ;
#232 = CARTESIAN_POINT ( 'NONE',  ( 0.0000000000000000000, 3.000000000000000000, 7.000000000000000000 ) ) ;
#233 = LINE ( 'NONE', #220, #219 ) ;
#234 = AXIS2_PLACEMENT_3D ( 'NONE', #210, #209, #208 ) ;
#235 = AXIS2_PLACEMENT_3D ( 'NONE', #231, #215, #214 ) ;
#236 = FACE_OUTER_BOUND ( 'NONE', #29, .T. ) ;
#237 = SHAPE_DEFINITION_REPRESENTATION ( #164, #353 ) ;
#238 = VERTEX_POINT ( 'NONE', #343 ) ;
#239 = EDGE_LOOP ( 'NONE', ( #242, #248, #3, #174 ) ) ;
#240 = ORIENTED_EDGE ( 'NONE', *, *, #243, .F. ) ;
#241 = EDGE_CURVE ( 'NONE', #78, #173, #349, .T. ) ;
#242 = ORIENTED_EDGE ( 'NONE', *, *, #171, .T. ) ;
#243 = EDGE_CURVE ( 'NONE', #173, #238, #435, .T. ) ;
#244 = EDGE_CURVE ( 'NONE', #247, #176, #431, .T. ) ;
#245 = ORIENTED_EDGE ( 'NONE', *, *, #75, .T. ) ;
#246 = ORIENTED_EDGE ( 'NONE', *, *, #225, .T. ) ;
#247 = VERTEX_POINT ( 'NONE', #330 ) ;
#248 = ORIENTED_EDGE ( 'NONE', *, *, #244, .F. ) ;
#249 = EDGE_CURVE ( 'NONE', #7, #48, #336, .T. ) ;
#250 = EDGE_LOOP ( 'NONE', ( #246, #155, #153, #172 ) ) ;
#251 = AXIS2_PLACEMENT_3D ( 'NONE', #299, #278, #277 ) ;
#252 = PLANE ( 'NONE',  #298 ) ;
#253 = AXIS2_PLACEMENT_3D ( 'NONE', #288, #287, #258 ) ;
#254 = DIRECTION ( 'NONE',  ( -1.000000000000000000, -0.0000000000000000000, -0.0000000000000000000 ) ) ;
#255 = VECTOR ( 'NONE', #254, 1000.000000000000000 ) ;
#256 = CARTESIAN_POINT ( 'NONE',  ( 100.0000000000000000, -3.000000000000000000, 7.000000000000000000 ) ) ;
#257 = CARTESIAN_POINT ( 'NONE',  ( 100.0000000000000000, -5.000000000000000000, 6.999999999999999100 ) ) ;
#258 = DIRECTION ( 'NONE',  ( 0.0000000000000000000, 1.000000000000000000, 4.336808689942017700E-016 ) ) ;
#259 = FACE_OUTER_BOUND ( 'NONE', #130, .T. ) ;
#260 = FACE_OUTER_BOUND ( 'NONE', #92, .T. ) ;
#261 = CARTESIAN_POINT ( 'NONE',  ( 100.0000000000000000, 3.500000000000000900, -7.041486534478675200E-016 ) ) ;
#262 = DIRECTION ( 'NONE',  ( -0.0000000000000000000, -0.0000000000000000000, -1.000000000000000000 ) ) ;
#263 = VECTOR ( 'NONE', #262, 1000.000000000000000 ) ;
#264 = CARTESIAN_POINT ( 'NONE',  ( 0.0000000000000000000, -3.000000000000000000, 7.000000000000000000 ) ) ;
#265 = LINE ( 'NONE', #264, #263 ) ;
#266 = PLANE ( 'NONE',  #308 ) ;
#267 = LINE ( 'NONE', #281, #280 ) ;
#268 = FACE_OUTER_BOUND ( 'NONE', #99, .T. ) ;
#269 = PLANE ( 'NONE',  #251 ) ;
#270 = PLANE ( 'NONE',  #253 ) ;
#271 = AXIS2_PLACEMENT_3D ( 'NONE', #295, #294, #293 ) ;
#272 = DIRECTION ( 'NONE',  ( -0.0000000000000000000, -1.000000000000000000, -4.336808689942017700E-016 ) ) ;
#273 = VECTOR ( 'NONE', #272, 1000.000000000000000 ) ;
#274 = CARTESIAN_POINT ( 'NONE',  ( 0.0000000000000000000, -5.000000000000000000, 6.999999999999999100 ) ) ;
#275 = PLANE ( 'NONE',  #271 ) ;
#276 = FACE_OUTER_BOUND ( 'NONE', #250, .T. ) ;
#277 = DIRECTION ( 'NONE',  ( 0.0000000000000000000, 1.000000000000000000, -4.336808689942017700E-016 ) ) ;
#278 = DIRECTION ( 'NONE',  ( 0.0000000000000000000, -4.336808689942017700E-016, -1.000000000000000000 ) ) ;
#279 = DIRECTION ( 'NONE',  ( -0.0000000000000000000, -1.000000000000000000, -0.0000000000000000000 ) ) ;
#280 = VECTOR ( 'NONE', #279, 1000.000000000000000 ) ;
#281 = CARTESIAN_POINT ( 'NONE',  ( 0.0000000000000000000, -3.000000000000000000, 23.00000000000000000 ) ) ;
#282 = CARTESIAN_POINT ( 'NONE',  ( 100.0000000000000000, -5.000000000000000900, 1.499999999999999100 ) ) ;
#283 = VECTOR ( 'NONE', #297, 1000.000000000000000 ) ;
#284 = CARTESIAN_POINT ( 'NONE',  ( 100.0000000000000000, 3.500000000000000900, -7.041486534478675200E-016 ) ) ;
#285 = LINE ( 'NONE', #284, #283 ) ;
#286 = CARTESIAN_POINT ( 'NONE',  ( 100.0000000000000000, -3.500000000000000900, -7.041486534478674200E-016 ) ) ;
#287 = DIRECTION ( 'NONE',  ( 0.0000000000000000000, 4.336808689942017700E-016, -1.000000000000000000 ) ) ;
#288 = CARTESIAN_POINT ( 'NONE',  ( 100.0000000000000000, -5.000000000000000000, 6.999999999999999100 ) ) ;
#289 = FACE_OUTER_BOUND ( 'NONE', #109, .T. ) ;
#290 = CARTESIAN_POINT ( 'NONE',  ( 0.0000000000000000000, -5.000000000000000000, 6.999999999999999100 ) ) ;
#291 = VECTOR ( 'NONE', #302, 1000.000000000000000 ) ;
#292 = LINE ( 'NONE', #324, #291 ) ;
#293 = DIRECTION ( 'NONE',  ( 0.0000000000000000000, -0.7071067811865476800, -0.7071067811865474600 ) ) ;
#294 = DIRECTION ( 'NONE',  ( 0.0000000000000000000, -0.7071067811865474600, 0.7071067811865476800 ) ) ;
#295 = CARTESIAN_POINT ( 'NONE',  ( 100.0000000000000000, 5.000000000000000900, 1.499999999999999100 ) ) ;
#296 = CARTESIAN_POINT ( 'NONE',  ( 0.0000000000000000000, -5.000000000000000900, 1.499999999999999100 ) ) ;
#297 = DIRECTION ( 'NONE',  ( -0.0000000000000000000, 1.000000000000000000, -1.375664245990882500E-032 ) ) ;
#298 = AXIS2_PLACEMENT_3D ( 'NONE', #321, #320, #319 ) ;
#299 = CARTESIAN_POINT ( 'NONE',  ( 100.0000000000000000, 3.000000000000000000, 7.000000000000000000 ) ) ;
#300 = LINE ( 'NONE', #256, #255 ) ;
#301 = LINE ( 'NONE', #318, #317 ) ;
#302 = DIRECTION ( 'NONE',  ( -0.0000000000000000000, -0.0000000000000000000, -1.000000000000000000 ) ) ;
#303 = CARTESIAN_POINT ( 'NONE',  ( 100.0000000000000000, -3.000000000000000000, 7.000000000000000000 ) ) ;
#304 = LINE ( 'NONE', #274, #273 ) ;
#305 = DIRECTION ( 'NONE',  ( 0.0000000000000000000, 0.0000000000000000000, 1.000000000000000000 ) ) ;
#306 = DIRECTION ( 'NONE',  ( -1.000000000000000000, 0.0000000000000000000, 0.0000000000000000000 ) ) ;
#307 = CARTESIAN_POINT ( 'NONE',  ( 0.0000000000000000000, 3.000000000000000000, 23.00000000000000000 ) ) ;
#308 = AXIS2_PLACEMENT_3D ( 'NONE', #307, #306, #305 ) ;
#309 = DIRECTION ( 'NONE',  ( -0.0000000000000000000, 0.7071067811865475700, -0.7071067811865474600 ) ) ;
#310 = VECTOR ( 'NONE', #309, 1000.000000000000000 ) ;
#311 = CARTESIAN_POINT ( 'NONE',  ( 100.0000000000000000, -3.500000000000000900, -7.041486534478674200E-016 ) ) ;
#312 = LINE ( 'NONE', #311, #310 ) ;
#313 = DIRECTION ( 'NONE',  ( -0.0000000000000000000, 0.7071067811865475700, -0.7071067811865474600 ) ) ;
#314 = VECTOR ( 'NONE', #313, 1000.000000000000000 ) ;
#315 = CARTESIAN_POINT ( 'NONE',  ( 0.0000000000000000000, -3.500000000000000900, -7.041486534478674200E-016 ) ) ;
#316 = DIRECTION ( 'NONE',  ( -1.000000000000000000, -0.0000000000000000000, -0.0000000000000000000 ) ) ;
#317 = VECTOR ( 'NONE', #316, 1000.000000000000000 ) ;
#318 = CARTESIAN_POINT ( 'NONE',  ( 100.0000000000000000, -5.000000000000000000, 6.999999999999999100 ) ) ;
#319 = DIRECTION ( 'NONE',  ( 0.0000000000000000000, -0.7071067811865476800, 0.7071067811865474600 ) ) ;
#320 = DIRECTION ( 'NONE',  ( -0.0000000000000000000, 0.7071067811865474600, 0.7071067811865476800 ) ) ;
#321 = CARTESIAN_POINT ( 'NONE',  ( 100.0000000000000000, -3.500000000000000900, -7.041486534478674200E-016 ) ) ;
#322 = LINE ( 'NONE', #315, #314 ) ;
#323 = CARTESIAN_POINT ( 'NONE',  ( 0.0000000000000000000, -3.500000000000000900, -7.041486534478674200E-016 ) ) ;
#324 = CARTESIAN_POINT ( 'NONE',  ( 100.0000000000000000, -3.000000000000000000, 7.000000000000000000 ) ) ;
#325 = CARTESIAN_POINT ( 'NONE',  ( 0.0000000000000000000, -3.000000000000000000, 7.000000000000000000 ) ) ;
#326 = PERSON ( 'NON SPECIFICATO', 'NON SPECIFICATO', 'NON SPECIFICATO', ('NON SPECIFICATO'), ('NON SPECIFICATO'), ('NON SPECIFICATO') ) ;
#327 = PRODUCT ( '084.514.003', '084.514.003', '', ( #328 ) ) ;
#328 = MECHANICAL_CONTEXT ( 'NONE', #352, 'mechanical' ) ;
#329 = VECTOR ( 'NONE', #344, 1000.000000000000000 ) ;
#330 = CARTESIAN_POINT ( 'NONE',  ( 100.0000000000000000, 5.000000000000000000, 6.999999999999999100 ) ) ;
#331 = DIRECTION ( 'NONE',  ( 0.0000000000000000000, 1.577021341797097600E-016, -1.000000000000000000 ) ) ;
#332 = DIRECTION ( 'NONE',  ( 0.0000000000000000000, -1.000000000000000000, -1.577021341797097600E-016 ) ) ;
#333 = CARTESIAN_POINT ( 'NONE',  ( 100.0000000000000000, 5.000000000000000000, 6.999999999999999100 ) ) ;
#334 = DIRECTION ( 'NONE',  ( -1.000000000000000000, -0.0000000000000000000, -0.0000000000000000000 ) ) ;
#335 = VECTOR ( 'NONE', #334, 1000.000000000000000 ) ;
#336 = LINE ( 'NONE', #350, #345 ) ;
#337 =( NAMED_UNIT ( * ) PLANE_ANGLE_UNIT ( ) SI_UNIT ( $, .RADIAN. ) );
#338 =( LENGTH_UNIT ( ) NAMED_UNIT ( * ) SI_UNIT ( .MILLI., .METRE. ) );
#339 = DIRECTION ( 'NONE',  ( -0.0000000000000000000, -0.0000000000000000000, 1.000000000000000000 ) ) ;
#340 = AXIS2_PLACEMENT_3D ( 'NONE', #341, #358, #357 ) ;
#341 = CARTESIAN_POINT ( 'NONE',  ( 0.0000000000000000000, 0.0000000000000000000, 0.0000000000000000000 ) ) ;
#342 = LINE ( 'NONE', #423, #429 ) ;
#343 = CARTESIAN_POINT ( 'NONE',  ( 0.0000000000000000000, 5.000000000000000900, 1.499999999999999100 ) ) ;
#344 = DIRECTION ( 'NONE',  ( -0.0000000000000000000, -1.000000000000000000, 4.336808689942017700E-016 ) ) ;
#345 = VECTOR ( 'NONE', #339, 1000.000000000000000 ) ;
#346 = DIRECTION ( 'NONE',  ( -0.0000000000000000000, 0.7071067811865475700, 0.7071067811865474600 ) ) ;
#347 = VECTOR ( 'NONE', #346, 1000.000000000000000 ) ;
#348 = CARTESIAN_POINT ( 'NONE',  ( 100.0000000000000000, 5.000000000000000900, 1.499999999999999100 ) ) ;
#349 = LINE ( 'NONE', #348, #347 ) ;
#350 = CARTESIAN_POINT ( 'NONE',  ( 0.0000000000000000000, 3.000000000000000000, 23.00000000000000000 ) ) ;
#351 = APPLICATION_PROTOCOL_DEFINITION ( 'international standard', 'config_control_design', 1994, #352 ) ;
#352 = APPLICATION_CONTEXT ( 'configuration controlled 3d designs of mechanical parts and assemblies' ) ;
#353 = ADVANCED_BREP_SHAPE_REPRESENTATION ( '084.514.003', ( #56, #340 ), #354 ) ;
#354 =( GEOMETRIC_REPRESENTATION_CONTEXT ( 3 ) GLOBAL_UNCERTAINTY_ASSIGNED_CONTEXT ( ( #355 ) ) GLOBAL_UNIT_ASSIGNED_CONTEXT ( ( #338, #337, #356 ) ) REPRESENTATION_CONTEXT ( 'NONE', 'WORKASPACE' ) );
#355 = UNCERTAINTY_MEASURE_WITH_UNIT (LENGTH_MEASURE( 1.000000000000000100E-005 ), #338, 'distance_accuracy_value', 'NONE');
#356 =( NAMED_UNIT ( * ) SI_UNIT ( $, .STERADIAN. ) SOLID_ANGLE_UNIT ( ) );
#357 = DIRECTION ( 'NONE',  ( 1.000000000000000000, 0.0000000000000000000, 0.0000000000000000000 ) ) ;
#358 = DIRECTION ( 'NONE',  ( 0.0000000000000000000, 0.0000000000000000000, 1.000000000000000000 ) ) ;
#359 = SECURITY_CLASSIFICATION ( '', '', #360 ) ;
#360 = SECURITY_CLASSIFICATION_LEVEL ( 'unclassified' ) ;
#361 = CC_DESIGN_PERSON_AND_ORGANIZATION_ASSIGNMENT ( #363, #362, ( #378 ) ) ;
#362 = PERSON_AND_ORGANIZATION_ROLE ( 'design_supplier' ) ;
#363 = PERSON_AND_ORGANIZATION ( #326, #419 ) ;
#364 = CC_DESIGN_PERSON_AND_ORGANIZATION_ASSIGNMENT ( #366, #365, ( #378 ) ) ;
#365 = PERSON_AND_ORGANIZATION_ROLE ( 'creator' ) ;
#366 = PERSON_AND_ORGANIZATION ( #326, #419 ) ;
#367 = CC_DESIGN_APPROVAL ( #375, ( #378 ) ) ;
#368 = APPROVAL_DATE_TIME ( #369, #375 ) ;
#369 = DATE_AND_TIME ( #370, #371 ) ;
#370 = CALENDAR_DATE ( 2013, 28, 1 ) ;
#371 = LOCAL_TIME ( 14, 14, 42.00000000000000000, #372 ) ;
#372 = COORDINATED_UNIVERSAL_TIME_OFFSET ( 1, 0, .AHEAD. ) ;
#373 = APPROVAL_PERSON_ORGANIZATION ( #377, #375, #374 ) ;
#374 = APPROVAL_ROLE ( '' ) ;
#375 = APPROVAL ( #376, 'NON SPECIFICATO' ) ;
#376 = APPROVAL_STATUS ( 'not_yet_approved' ) ;
#377 = PERSON_AND_ORGANIZATION ( #326, #419 ) ;
#378 = PRODUCT_DEFINITION_FORMATION_WITH_SPECIFIED_SOURCE ( 'TUTTO', '', #327, .NOT_KNOWN. ) ;
#379 = CARTESIAN_POINT ( 'NONE',  ( 100.0000000000000000, 3.000000000000000000, 7.000000000000000000 ) ) ;
#380 = CARTESIAN_POINT ( 'NONE',  ( 0.0000000000000000000, 3.500000000000000900, -7.041486534478675200E-016 ) ) ;
#381 = AXIS2_PLACEMENT_3D ( 'NONE', #333, #332, #331 ) ;
#382 = LINE ( 'NONE', #391, #329 ) ;
#383 = VECTOR ( 'NONE', #388, 1000.000000000000000 ) ;
#384 = CARTESIAN_POINT ( 'NONE',  ( 100.0000000000000000, 5.000000000000000900, 1.499999999999999100 ) ) ;
#385 = CARTESIAN_POINT ( 'NONE',  ( 100.0000000000000000, 5.000000000000000000, 6.999999999999999100 ) ) ;
#386 = PLANE ( 'NONE',  #381 ) ;
#387 = DIRECTION ( 'NONE',  ( -0.0000000000000000000, -1.000000000000000000, 4.336808689942017700E-016 ) ) ;
#388 = DIRECTION ( 'NONE',  ( -0.0000000000000000000, -1.577021341797097600E-016, 1.000000000000000000 ) ) ;
#389 = CARTESIAN_POINT ( 'NONE',  ( 0.0000000000000000000, 5.000000000000000000, 6.999999999999999100 ) ) ;
#390 = LINE ( 'NONE', #389, #383 ) ;
#391 = CARTESIAN_POINT ( 'NONE',  ( 0.0000000000000000000, 3.000000000000000000, 7.000000000000000000 ) ) ;
#392 = CC_DESIGN_DATE_AND_TIME_ASSIGNMENT ( #394, #393, ( #412 ) ) ;
#393 = DATE_TIME_ROLE ( 'creation_date' ) ;
#394 = DATE_AND_TIME ( #395, #396 ) ;
#395 = CALENDAR_DATE ( 2013, 28, 1 ) ;
#396 = LOCAL_TIME ( 14, 14, 42.00000000000000000, #397 ) ;
#397 = COORDINATED_UNIVERSAL_TIME_OFFSET ( 1, 0, .AHEAD. ) ;
#398 = CC_DESIGN_PERSON_AND_ORGANIZATION_ASSIGNMENT ( #400, #399, ( #412 ) ) ;
#399 = PERSON_AND_ORGANIZATION_ROLE ( 'creator' ) ;
#400 = PERSON_AND_ORGANIZATION ( #326, #419 ) ;
#401 = CC_DESIGN_APPROVAL ( #409, ( #412 ) ) ;
#402 = APPROVAL_DATE_TIME ( #403, #409 ) ;
#403 = DATE_AND_TIME ( #404, #405 ) ;
#404 = CALENDAR_DATE ( 2013, 28, 1 ) ;
#405 = LOCAL_TIME ( 14, 14, 42.00000000000000000, #406 ) ;
#406 = COORDINATED_UNIVERSAL_TIME_OFFSET ( 1, 0, .AHEAD. ) ;
#407 = APPROVAL_PERSON_ORGANIZATION ( #411, #409, #408 ) ;
#408 = APPROVAL_ROLE ( '' ) ;
#409 = APPROVAL ( #410, 'NON SPECIFICATO' ) ;
#410 = APPROVAL_STATUS ( 'not_yet_approved' ) ;
#411 = PERSON_AND_ORGANIZATION ( #326, #419 ) ;
#412 = PRODUCT_DEFINITION ( 'NON CONOSCIUTO', '', #378, #413 ) ;
#413 = DESIGN_CONTEXT ( 'detailed design', #415, 'design' ) ;
#414 = APPLICATION_PROTOCOL_DEFINITION ( 'international standard', 'config_control_design', 1994, #415 ) ;
#415 = APPLICATION_CONTEXT ( 'configuration controlled 3d designs of mechanical parts and assemblies' ) ;
#416 = CC_DESIGN_PERSON_AND_ORGANIZATION_ASSIGNMENT ( #418, #417, ( #327 ) ) ;
#417 = PERSON_AND_ORGANIZATION_ROLE ( 'design_owner' ) ;
#418 = PERSON_AND_ORGANIZATION ( #326, #419 ) ;
#419 = ORGANIZATION ( 'NON SPECIFICATO', 'NON SPECIFICATO', '' ) ;
#420 = LINE ( 'NONE', #425, #430 ) ;
#421 = FACE_OUTER_BOUND ( 'NONE', #239, .T. ) ;
#422 = DIRECTION ( 'NONE',  ( -0.0000000000000000000, -1.000000000000000000, -4.336808689942017700E-016 ) ) ;
#423 = CARTESIAN_POINT ( 'NONE',  ( 100.0000000000000000, -5.000000000000000000, 6.999999999999999100 ) ) ;
#424 = DIRECTION ( 'NONE',  ( -0.0000000000000000000, -1.577021341797097600E-016, -1.000000000000000000 ) ) ;
#425 = CARTESIAN_POINT ( 'NONE',  ( 0.0000000000000000000, -5.000000000000000900, 1.499999999999999100 ) ) ;
#426 = VECTOR ( 'NONE', #387, 1000.000000000000000 ) ;
#427 = CARTESIAN_POINT ( 'NONE',  ( 0.0000000000000000000, 5.000000000000000000, 6.999999999999999100 ) ) ;
#428 = LINE ( 'NONE', #379, #426 ) ;
#429 = VECTOR ( 'NONE', #422, 1000.000000000000000 ) ;
#430 = VECTOR ( 'NONE', #424, 1000.000000000000000 ) ;
#431 = LINE ( 'NONE', #385, #335 ) ;
#432 = DIRECTION ( 'NONE',  ( -1.000000000000000000, -0.0000000000000000000, -0.0000000000000000000 ) ) ;
#433 = VECTOR ( 'NONE', #432, 1000.000000000000000 ) ;
#434 = CARTESIAN_POINT ( 'NONE',  ( 100.0000000000000000, 5.000000000000000900, 1.499999999999999100 ) ) ;
#435 = LINE ( 'NONE', #434, #433 ) ;
ENDSEC;
END-ISO-10303-21;
