ISO-10303-21;
HEADER;
FILE_DESCRIPTION (( 'STEP AP203' ),
    '1' );
FILE_NAME ('084.514.001.STEP',
    '2013-01-28T13:16:08',
    ( 'Alusic' ),
    ( 'Alusic' ),
    'SwSTEP 2.0',
    'SolidWorks 2011',
    '' );
FILE_SCHEMA (( 'CONFIG_CONTROL_DESIGN' ));
ENDSEC;

DATA;
#1 = ORIENTED_EDGE ( 'NONE', *, *, #12, .F. ) ;
#2 = EDGE_CURVE ( 'NONE', #47, #59, #108, .T. ) ;
#3 = EDGE_CURVE ( 'NONE', #59, #8, #102, .T. ) ;
#4 = ORIENTED_EDGE ( 'NONE', *, *, #9, .F. ) ;
#5 = ORIENTED_EDGE ( 'NONE', *, *, #150, .F. ) ;
#6 = VERTEX_POINT ( 'NONE', #110 ) ;
#7 = ORIENTED_EDGE ( 'NONE', *, *, #3, .T. ) ;
#8 = VERTEX_POINT ( 'NONE', #224 ) ;
#9 = EDGE_CURVE ( 'NONE', #6, #8, #103, .T. ) ;
#10 = ADVANCED_FACE ( 'NONE', ( #111 ), #78, .F. ) ;
#11 = ORIENTED_EDGE ( 'NONE', *, *, #57, .T. ) ;
#12 = EDGE_CURVE ( 'NONE', #55, #47, #69, .T. ) ;
#13 = EDGE_LOOP ( 'NONE', ( #7, #4, #5, #172 ) ) ;
#14 = VERTEX_POINT ( 'NONE', #77 ) ;
#15 = ORIENTED_EDGE ( 'NONE', *, *, #28, .T. ) ;
#16 = VERTEX_POINT ( 'NONE', #65 ) ;
#17 = ORIENTED_EDGE ( 'NONE', *, *, #31, .F. ) ;
#18 = EDGE_LOOP ( 'NONE', ( #25, #22, #17, #34 ) ) ;
#19 = ORIENTED_EDGE ( 'NONE', *, *, #20, .F. ) ;
#20 = EDGE_CURVE ( 'NONE', #14, #36, #66, .T. ) ;
#21 = VERTEX_POINT ( 'NONE', #71 ) ;
#22 = ORIENTED_EDGE ( 'NONE', *, *, #24, .F. ) ;
#23 = ADVANCED_FACE ( 'NONE', ( #75 ), #63, .F. ) ;
#24 = EDGE_CURVE ( 'NONE', #43, #21, #294, .T. ) ;
#25 = ORIENTED_EDGE ( 'NONE', *, *, #30, .T. ) ;
#26 = EDGE_CURVE ( 'NONE', #36, #41, #296, .T. ) ;
#27 = ORIENTED_EDGE ( 'NONE', *, *, #35, .T. ) ;
#28 = EDGE_CURVE ( 'NONE', #16, #41, #286, .T. ) ;
#29 = ADVANCED_FACE ( 'NONE', ( #235 ), #282, .F. ) ;
#30 = EDGE_CURVE ( 'NONE', #41, #21, #276, .T. ) ;
#31 = EDGE_CURVE ( 'NONE', #36, #43, #271, .T. ) ;
#32 = ORIENTED_EDGE ( 'NONE', *, *, #26, .F. ) ;
#33 = EDGE_LOOP ( 'NONE', ( #15, #32, #19, #27 ) ) ;
#34 = ORIENTED_EDGE ( 'NONE', *, *, #26, .T. ) ;
#35 = EDGE_CURVE ( 'NONE', #14, #16, #279, .T. ) ;
#36 = VERTEX_POINT ( 'NONE', #272 ) ;
#37 = MANIFOLD_SOLID_BREP ( 'Elemento strutturale1', #223 ) ;
#38 = ORIENTED_EDGE ( 'NONE', *, *, #232, .F. ) ;
#39 = ADVANCED_FACE ( 'NONE', ( #165 ), #281, .F. ) ;
#40 = ORIENTED_EDGE ( 'NONE', *, *, #30, .F. ) ;
#41 = VERTEX_POINT ( 'NONE', #157 ) ;
#42 = ORIENTED_EDGE ( 'NONE', *, *, #61, .F. ) ;
#43 = VERTEX_POINT ( 'NONE', #163 ) ;
#44 = ORIENTED_EDGE ( 'NONE', *, *, #57, .F. ) ;
#45 = ORIENTED_EDGE ( 'NONE', *, *, #61, .T. ) ;
#46 = EDGE_CURVE ( 'NONE', #21, #60, #145, .T. ) ;
#47 = VERTEX_POINT ( 'NONE', #161 ) ;
#48 = VERTEX_POINT ( 'NONE', #291 ) ;
#49 = ADVANCED_FACE ( 'NONE', ( #268 ), #142, .F. ) ;
#50 = EDGE_LOOP ( 'NONE', ( #51, #44, #52, #54 ) ) ;
#51 = ORIENTED_EDGE ( 'NONE', *, *, #46, .T. ) ;
#52 = ORIENTED_EDGE ( 'NONE', *, *, #56, .F. ) ;
#53 = EDGE_LOOP ( 'NONE', ( #45, #62, #1, #11 ) ) ;
#54 = ORIENTED_EDGE ( 'NONE', *, *, #24, .T. ) ;
#55 = VERTEX_POINT ( 'NONE', #158 ) ;
#56 = EDGE_CURVE ( 'NONE', #43, #55, #131, .T. ) ;
#57 = EDGE_CURVE ( 'NONE', #55, #60, #127, .T. ) ;
#58 = ADVANCED_FACE ( 'NONE', ( #138 ), #124, .F. ) ;
#59 = VERTEX_POINT ( 'NONE', #147 ) ;
#60 = VERTEX_POINT ( 'NONE', #212 ) ;
#61 = EDGE_CURVE ( 'NONE', #60, #59, #214, .T. ) ;
#62 = ORIENTED_EDGE ( 'NONE', *, *, #2, .F. ) ;
#63 = PLANE ( 'NONE',  #236 ) ;
#64 = AXIS2_PLACEMENT_3D ( 'NONE', #70, #82, #277 ) ;
#65 = CARTESIAN_POINT ( 'NONE',  ( 0.0000000000000000000, 4.000000000000000000, 32.00000000000000000 ) ) ;
#66 = LINE ( 'NONE', #240, #239 ) ;
#67 = DIRECTION ( 'NONE',  ( -0.0000000000000000000, 6.715058616684411100E-016, -1.000000000000000000 ) ) ;
#68 = VECTOR ( 'NONE', #67, 1000.000000000000000 ) ;
#69 = LINE ( 'NONE', #74, #68 ) ;
#70 = CARTESIAN_POINT ( 'NONE',  ( 100.0000000000000000, -4.000000000000000000, 10.50000000000000000 ) ) ;
#71 = CARTESIAN_POINT ( 'NONE',  ( 0.0000000000000000000, -4.000000000000000000, 10.50000000000000000 ) ) ;
#72 = DIRECTION ( 'NONE',  ( 0.0000000000000000000, -0.7071067811865469100, 0.7071067811865481300 ) ) ;
#73 = DIRECTION ( 'NONE',  ( -0.0000000000000000000, 0.7071067811865481300, 0.7071067811865469100 ) ) ;
#74 = CARTESIAN_POINT ( 'NONE',  ( 100.0000000000000000, -6.749999999999995600, 2.749999999999997300 ) ) ;
#75 = FACE_OUTER_BOUND ( 'NONE', #33, .T. ) ;
#76 = CARTESIAN_POINT ( 'NONE',  ( 100.0000000000000000, -4.000000000000000000, 32.00000000000000000 ) ) ;
#77 = CARTESIAN_POINT ( 'NONE',  ( 100.0000000000000000, 4.000000000000000000, 32.00000000000000000 ) ) ;
#78 = PLANE ( 'NONE',  #104 ) ;
#79 = DIRECTION ( 'NONE',  ( -1.000000000000000000, -0.0000000000000000000, -0.0000000000000000000 ) ) ;
#80 = VECTOR ( 'NONE', #79, 1000.000000000000000 ) ;
#81 = CARTESIAN_POINT ( 'NONE',  ( 100.0000000000000000, -4.000000000000001800, -9.164003347034070400E-016 ) ) ;
#82 = DIRECTION ( 'NONE',  ( 0.0000000000000000000, 1.000000000000000000, 0.0000000000000000000 ) ) ;
#83 = ADVANCED_FACE ( 'NONE', ( #140 ), #123, .F. ) ;
#84 = ORIENTED_EDGE ( 'NONE', *, *, #56, .T. ) ;
#85 = ORIENTED_EDGE ( 'NONE', *, *, #226, .F. ) ;
#86 = EDGE_CURVE ( 'NONE', #117, #227, #201, .T. ) ;
#87 = EDGE_CURVE ( 'NONE', #228, #169, #198, .T. ) ;
#88 = ORIENTED_EDGE ( 'NONE', *, *, #86, .F. ) ;
#89 = ORIENTED_EDGE ( 'NONE', *, *, #151, .T. ) ;
#90 = ORIENTED_EDGE ( 'NONE', *, *, #87, .T. ) ;
#91 = ORIENTED_EDGE ( 'NONE', *, *, #226, .T. ) ;
#92 = ADVANCED_FACE ( 'NONE', ( #204 ), #207, .F. ) ;
#93 = ORIENTED_EDGE ( 'NONE', *, *, #94, .F. ) ;
#94 = EDGE_CURVE ( 'NONE', #148, #169, #191, .T. ) ;
#95 = EDGE_LOOP ( 'NONE', ( #181, #180, #225, #178, #222, #216, #217, #42, #215, #40 ) ) ;
#96 = EDGE_CURVE ( 'NONE', #227, #148, #262, .T. ) ;
#97 = EDGE_CURVE ( 'NONE', #8, #48, #258, .T. ) ;
#98 = DIRECTION ( 'NONE',  ( 0.0000000000000000000, 0.0000000000000000000, -1.000000000000000000 ) ) ;
#99 = DIRECTION ( 'NONE',  ( -0.0000000000000000000, 0.7071067811865469100, -0.7071067811865482400 ) ) ;
#100 = VECTOR ( 'NONE', #99, 999.9999999999998900 ) ;
#101 = CARTESIAN_POINT ( 'NONE',  ( 0.0000000000000000000, -4.000000000000001800, -9.164003347034070400E-016 ) ) ;
#102 = LINE ( 'NONE', #101, #100 ) ;
#103 = LINE ( 'NONE', #81, #80 ) ;
#104 = AXIS2_PLACEMENT_3D ( 'NONE', #109, #73, #72 ) ;
#105 = DIRECTION ( 'NONE',  ( -1.000000000000000000, -0.0000000000000000000, -0.0000000000000000000 ) ) ;
#106 = VECTOR ( 'NONE', #105, 1000.000000000000000 ) ;
#107 = CARTESIAN_POINT ( 'NONE',  ( 100.0000000000000000, -6.749999999999995600, 2.749999999999997300 ) ) ;
#108 = LINE ( 'NONE', #107, #106 ) ;
#109 = CARTESIAN_POINT ( 'NONE',  ( 100.0000000000000000, -4.000000000000001800, -9.164003347034070400E-016 ) ) ;
#110 = CARTESIAN_POINT ( 'NONE',  ( 100.0000000000000000, -4.000000000000001800, -9.164003347034070400E-016 ) ) ;
#111 = FACE_OUTER_BOUND ( 'NONE', #13, .T. ) ;
#112 = ORIENTED_EDGE ( 'NONE', *, *, #232, .T. ) ;
#113 = ORIENTED_EDGE ( 'NONE', *, *, #233, .F. ) ;
#114 = ORIENTED_EDGE ( 'NONE', *, *, #116, .T. ) ;
#115 = EDGE_CURVE ( 'NONE', #117, #230, #264, .T. ) ;
#116 = EDGE_CURVE ( 'NONE', #48, #230, #251, .T. ) ;
#117 = VERTEX_POINT ( 'NONE', #252 ) ;
#118 = EDGE_LOOP ( 'NONE', ( #119, #85, #88, #120 ) ) ;
#119 = ORIENTED_EDGE ( 'NONE', *, *, #171, .T. ) ;
#120 = ORIENTED_EDGE ( 'NONE', *, *, #115, .T. ) ;
#121 = ADVANCED_FACE ( 'NONE', ( #263 ), #139, .F. ) ;
#122 = EDGE_LOOP ( 'NONE', ( #90, #93, #234, #91 ) ) ;
#123 = PLANE ( 'NONE',  #162 ) ;
#124 = PLANE ( 'NONE',  #141 ) ;
#125 = DIRECTION ( 'NONE',  ( -1.000000000000000000, -0.0000000000000000000, -0.0000000000000000000 ) ) ;
#126 = VECTOR ( 'NONE', #125, 1000.000000000000000 ) ;
#127 = LINE ( 'NONE', #146, #126 ) ;
#128 = CARTESIAN_POINT ( 'NONE',  ( 100.0000000000000000, 4.000000000000000000, 32.00000000000000000 ) ) ;
#129 = DIRECTION ( 'NONE',  ( -0.0000000000000000000, -1.000000000000000000, -0.0000000000000000000 ) ) ;
#130 = VECTOR ( 'NONE', #129, 1000.000000000000000 ) ;
#131 = LINE ( 'NONE', #134, #130 ) ;
#132 = DIRECTION ( 'NONE',  ( -0.0000000000000000000, 1.000000000000000000, 6.715058616684411100E-016 ) ) ;
#133 = CARTESIAN_POINT ( 'NONE',  ( 100.0000000000000000, -6.749999999999995600, 2.749999999999997300 ) ) ;
#134 = CARTESIAN_POINT ( 'NONE',  ( 100.0000000000000000, -6.750000000000000900, 10.50000000000000000 ) ) ;
#135 = DIRECTION ( 'NONE',  ( -1.000000000000000000, 0.0000000000000000000, -0.0000000000000000000 ) ) ;
#136 = DIRECTION ( 'NONE',  ( 0.0000000000000000000, 0.0000000000000000000, -1.000000000000000000 ) ) ;
#137 = CARTESIAN_POINT ( 'NONE',  ( 100.0000000000000000, -6.750000000000000900, 10.50000000000000000 ) ) ;
#138 = FACE_OUTER_BOUND ( 'NONE', #53, .T. ) ;
#139 = PLANE ( 'NONE',  #246 ) ;
#140 = FACE_OUTER_BOUND ( 'NONE', #152, .T. ) ;
#141 = AXIS2_PLACEMENT_3D ( 'NONE', #133, #132, #213 ) ;
#142 = PLANE ( 'NONE',  #267 ) ;
#143 = DIRECTION ( 'NONE',  ( -0.0000000000000000000, -1.000000000000000000, -0.0000000000000000000 ) ) ;
#144 = VECTOR ( 'NONE', #143, 1000.000000000000000 ) ;
#145 = LINE ( 'NONE', #273, #144 ) ;
#146 = CARTESIAN_POINT ( 'NONE',  ( 100.0000000000000000, -6.750000000000000900, 10.50000000000000000 ) ) ;
#147 = CARTESIAN_POINT ( 'NONE',  ( 0.0000000000000000000, -6.749999999999995600, 2.749999999999997300 ) ) ;
#148 = VERTEX_POINT ( 'NONE', #192 ) ;
#149 = ORIENTED_EDGE ( 'NONE', *, *, #97, .T. ) ;
#150 = EDGE_CURVE ( 'NONE', #47, #6, #247, .T. ) ;
#151 = EDGE_CURVE ( 'NONE', #169, #16, #432, .T. ) ;
#152 = EDGE_LOOP ( 'NONE', ( #155, #187, #84, #153, #177, #175, #179, #185, #176, #182 ) ) ;
#153 = ORIENTED_EDGE ( 'NONE', *, *, #12, .T. ) ;
#154 = ORIENTED_EDGE ( 'NONE', *, *, #156, .F. ) ;
#155 = ORIENTED_EDGE ( 'NONE', *, *, #20, .T. ) ;
#156 = EDGE_CURVE ( 'NONE', #148, #14, #340, .T. ) ;
#157 = CARTESIAN_POINT ( 'NONE',  ( 0.0000000000000000000, -4.000000000000000000, 32.00000000000000000 ) ) ;
#158 = CARTESIAN_POINT ( 'NONE',  ( 100.0000000000000000, -6.750000000000000900, 10.50000000000000000 ) ) ;
#159 = DIRECTION ( 'NONE',  ( 1.000000000000000000, 0.0000000000000000000, 0.0000000000000000000 ) ) ;
#160 = DIRECTION ( 'NONE',  ( -0.0000000000000000000, 0.0000000000000000000, 1.000000000000000000 ) ) ;
#161 = CARTESIAN_POINT ( 'NONE',  ( 100.0000000000000000, -6.749999999999995600, 2.749999999999997300 ) ) ;
#162 = AXIS2_PLACEMENT_3D ( 'NONE', #128, #205, #203 ) ;
#163 = CARTESIAN_POINT ( 'NONE',  ( 100.0000000000000000, -4.000000000000000000, 10.50000000000000000 ) ) ;
#164 = CARTESIAN_POINT ( 'NONE',  ( 100.0000000000000000, 4.000000000000001800, -9.164003347034070400E-016 ) ) ;
#165 = FACE_OUTER_BOUND ( 'NONE', #218, .T. ) ;
#166 = DIRECTION ( 'NONE',  ( -1.000000000000000000, -0.0000000000000000000, -0.0000000000000000000 ) ) ;
#167 = VECTOR ( 'NONE', #166, 1000.000000000000000 ) ;
#168 = EDGE_LOOP ( 'NONE', ( #89, #184, #154, #186 ) ) ;
#169 = VERTEX_POINT ( 'NONE', #435 ) ;
#170 = ORIENTED_EDGE ( 'NONE', *, *, #219, .F. ) ;
#171 = EDGE_CURVE ( 'NONE', #230, #228, #306, .T. ) ;
#172 = ORIENTED_EDGE ( 'NONE', *, *, #2, .T. ) ;
#173 = VERTEX_POINT ( 'NONE', #309 ) ;
#174 = EDGE_LOOP ( 'NONE', ( #114, #231, #113, #112 ) ) ;
#175 = ORIENTED_EDGE ( 'NONE', *, *, #219, .T. ) ;
#176 = ORIENTED_EDGE ( 'NONE', *, *, #96, .T. ) ;
#177 = ORIENTED_EDGE ( 'NONE', *, *, #150, .T. ) ;
#178 = ORIENTED_EDGE ( 'NONE', *, *, #171, .F. ) ;
#179 = ORIENTED_EDGE ( 'NONE', *, *, #233, .T. ) ;
#180 = ORIENTED_EDGE ( 'NONE', *, *, #151, .F. ) ;
#181 = ORIENTED_EDGE ( 'NONE', *, *, #28, .F. ) ;
#182 = ORIENTED_EDGE ( 'NONE', *, *, #156, .T. ) ;
#183 = ADVANCED_FACE ( 'NONE', ( #303 ), #307, .F. ) ;
#184 = ORIENTED_EDGE ( 'NONE', *, *, #35, .F. ) ;
#185 = ORIENTED_EDGE ( 'NONE', *, *, #86, .T. ) ;
#186 = ORIENTED_EDGE ( 'NONE', *, *, #94, .T. ) ;
#187 = ORIENTED_EDGE ( 'NONE', *, *, #31, .T. ) ;
#188 = DIRECTION ( 'NONE',  ( -1.000000000000000000, 0.0000000000000000000, -0.0000000000000000000 ) ) ;
#189 = DIRECTION ( 'NONE',  ( 0.0000000000000000000, 0.0000000000000000000, -1.000000000000000000 ) ) ;
#190 = CARTESIAN_POINT ( 'NONE',  ( 100.0000000000000000, 4.000000000000000000, 10.50000000000000000 ) ) ;
#191 = LINE ( 'NONE', #190, #266 ) ;
#192 = CARTESIAN_POINT ( 'NONE',  ( 100.0000000000000000, 4.000000000000000000, 10.50000000000000000 ) ) ;
#193 = DIRECTION ( 'NONE',  ( -0.0000000000000000000, -1.000000000000000000, -0.0000000000000000000 ) ) ;
#194 = VECTOR ( 'NONE', #193, 1000.000000000000000 ) ;
#195 = CARTESIAN_POINT ( 'NONE',  ( 0.0000000000000000000, 4.000000000000000000, 10.50000000000000000 ) ) ;
#196 = DIRECTION ( 'NONE',  ( -1.000000000000000000, -0.0000000000000000000, -0.0000000000000000000 ) ) ;
#197 = CARTESIAN_POINT ( 'NONE',  ( 100.0000000000000000, 6.749999999999992000, 2.749999999999999100 ) ) ;
#198 = LINE ( 'NONE', #195, #194 ) ;
#199 = DIRECTION ( 'NONE',  ( -0.0000000000000000000, 1.119176436114068800E-015, 1.000000000000000000 ) ) ;
#200 = VECTOR ( 'NONE', #199, 1000.000000000000000 ) ;
#201 = LINE ( 'NONE', #206, #200 ) ;
#202 = AXIS2_PLACEMENT_3D ( 'NONE', #211, #189, #188 ) ;
#203 = DIRECTION ( 'NONE',  ( 0.0000000000000000000, 0.0000000000000000000, 1.000000000000000000 ) ) ;
#204 = FACE_OUTER_BOUND ( 'NONE', #122, .T. ) ;
#205 = DIRECTION ( 'NONE',  ( -1.000000000000000000, 0.0000000000000000000, 0.0000000000000000000 ) ) ;
#206 = CARTESIAN_POINT ( 'NONE',  ( 100.0000000000000000, 6.750000000000000900, 10.50000000000000000 ) ) ;
#207 = PLANE ( 'NONE',  #202 ) ;
#208 = DIRECTION ( 'NONE',  ( -0.0000000000000000000, 6.715058616684411100E-016, -1.000000000000000000 ) ) ;
#209 = VECTOR ( 'NONE', #208, 1000.000000000000000 ) ;
#210 = CARTESIAN_POINT ( 'NONE',  ( 0.0000000000000000000, -6.749999999999995600, 2.749999999999997300 ) ) ;
#211 = CARTESIAN_POINT ( 'NONE',  ( 100.0000000000000000, 4.000000000000000000, 10.50000000000000000 ) ) ;
#212 = CARTESIAN_POINT ( 'NONE',  ( 0.0000000000000000000, -6.750000000000000900, 10.50000000000000000 ) ) ;
#213 = DIRECTION ( 'NONE',  ( 0.0000000000000000000, -6.715058616684411100E-016, 1.000000000000000000 ) ) ;
#214 = LINE ( 'NONE', #210, #209 ) ;
#215 = ORIENTED_EDGE ( 'NONE', *, *, #46, .F. ) ;
#216 = ORIENTED_EDGE ( 'NONE', *, *, #97, .F. ) ;
#217 = ORIENTED_EDGE ( 'NONE', *, *, #3, .F. ) ;
#218 = EDGE_LOOP ( 'NONE', ( #149, #38, #170, #220 ) ) ;
#219 = EDGE_CURVE ( 'NONE', #6, #173, #395, .T. ) ;
#220 = ORIENTED_EDGE ( 'NONE', *, *, #9, .T. ) ;
#221 = ADVANCED_FACE ( 'NONE', ( #394 ), #433, .T. ) ;
#222 = ORIENTED_EDGE ( 'NONE', *, *, #116, .F. ) ;
#223 = CLOSED_SHELL ( 'NONE', ( #23, #29, #49, #58, #10, #39, #229, #121, #92, #183, #83, #221 ) ) ;
#224 = CARTESIAN_POINT ( 'NONE',  ( 0.0000000000000000000, -4.000000000000001800, -9.164003347034070400E-016 ) ) ;
#225 = ORIENTED_EDGE ( 'NONE', *, *, #87, .F. ) ;
#226 = EDGE_CURVE ( 'NONE', #227, #228, #427, .T. ) ;
#227 = VERTEX_POINT ( 'NONE', #313 ) ;
#228 = VERTEX_POINT ( 'NONE', #428 ) ;
#229 = ADVANCED_FACE ( 'NONE', ( #337 ), #316, .F. ) ;
#230 = VERTEX_POINT ( 'NONE', #323 ) ;
#231 = ORIENTED_EDGE ( 'NONE', *, *, #115, .F. ) ;
#232 = EDGE_CURVE ( 'NONE', #173, #48, #333, .T. ) ;
#233 = EDGE_CURVE ( 'NONE', #173, #117, #330, .T. ) ;
#234 = ORIENTED_EDGE ( 'NONE', *, *, #96, .F. ) ;
#235 = FACE_OUTER_BOUND ( 'NONE', #18, .T. ) ;
#236 = AXIS2_PLACEMENT_3D ( 'NONE', #76, #98, #295 ) ;
#237 = CARTESIAN_POINT ( 'NONE',  ( 100.0000000000000000, -4.000000000000000000, 10.50000000000000000 ) ) ;
#238 = DIRECTION ( 'NONE',  ( -0.0000000000000000000, -1.000000000000000000, -0.0000000000000000000 ) ) ;
#239 = VECTOR ( 'NONE', #238, 1000.000000000000000 ) ;
#240 = CARTESIAN_POINT ( 'NONE',  ( 100.0000000000000000, -4.000000000000000000, 32.00000000000000000 ) ) ;
#241 = DIRECTION ( 'NONE',  ( -0.0000000000000000000, 0.7071067811865469100, -0.7071067811865482400 ) ) ;
#242 = VECTOR ( 'NONE', #241, 999.9999999999998900 ) ;
#243 = DIRECTION ( 'NONE',  ( 0.0000000000000000000, -1.119176436114068800E-015, -1.000000000000000000 ) ) ;
#244 = DIRECTION ( 'NONE',  ( 0.0000000000000000000, -1.000000000000000000, 1.119176436114068800E-015 ) ) ;
#245 = CARTESIAN_POINT ( 'NONE',  ( 100.0000000000000000, 6.750000000000000900, 10.50000000000000000 ) ) ;
#246 = AXIS2_PLACEMENT_3D ( 'NONE', #245, #244, #243 ) ;
#247 = LINE ( 'NONE', #254, #242 ) ;
#248 = DIRECTION ( 'NONE',  ( -0.0000000000000000000, 0.7071067811865463500, 0.7071067811865487900 ) ) ;
#249 = VECTOR ( 'NONE', #248, 1000.000000000000000 ) ;
#250 = CARTESIAN_POINT ( 'NONE',  ( 0.0000000000000000000, 6.749999999999992000, 2.749999999999999100 ) ) ;
#251 = LINE ( 'NONE', #250, #249 ) ;
#252 = CARTESIAN_POINT ( 'NONE',  ( 100.0000000000000000, 6.749999999999992000, 2.749999999999999100 ) ) ;
#253 = VECTOR ( 'NONE', #196, 1000.000000000000000 ) ;
#254 = CARTESIAN_POINT ( 'NONE',  ( 100.0000000000000000, -4.000000000000001800, -9.164003347034070400E-016 ) ) ;
#255 = DIRECTION ( 'NONE',  ( -0.0000000000000000000, 1.000000000000000000, -0.0000000000000000000 ) ) ;
#256 = VECTOR ( 'NONE', #255, 1000.000000000000000 ) ;
#257 = CARTESIAN_POINT ( 'NONE',  ( 0.0000000000000000000, 4.000000000000001800, -9.164003347034070400E-016 ) ) ;
#258 = LINE ( 'NONE', #257, #256 ) ;
#259 = DIRECTION ( 'NONE',  ( -0.0000000000000000000, -1.000000000000000000, -0.0000000000000000000 ) ) ;
#260 = VECTOR ( 'NONE', #259, 1000.000000000000000 ) ;
#261 = CARTESIAN_POINT ( 'NONE',  ( 100.0000000000000000, 4.000000000000000000, 10.50000000000000000 ) ) ;
#262 = LINE ( 'NONE', #261, #260 ) ;
#263 = FACE_OUTER_BOUND ( 'NONE', #118, .T. ) ;
#264 = LINE ( 'NONE', #197, #253 ) ;
#265 = DIRECTION ( 'NONE',  ( -1.000000000000000000, -0.0000000000000000000, -0.0000000000000000000 ) ) ;
#266 = VECTOR ( 'NONE', #265, 1000.000000000000000 ) ;
#267 = AXIS2_PLACEMENT_3D ( 'NONE', #137, #136, #135 ) ;
#268 = FACE_OUTER_BOUND ( 'NONE', #50, .T. ) ;
#269 = DIRECTION ( 'NONE',  ( -0.0000000000000000000, -0.0000000000000000000, -1.000000000000000000 ) ) ;
#270 = VECTOR ( 'NONE', #269, 1000.000000000000000 ) ;
#271 = LINE ( 'NONE', #237, #270 ) ;
#272 = CARTESIAN_POINT ( 'NONE',  ( 100.0000000000000000, -4.000000000000000000, 32.00000000000000000 ) ) ;
#273 = CARTESIAN_POINT ( 'NONE',  ( 0.0000000000000000000, -6.750000000000000900, 10.50000000000000000 ) ) ;
#274 = DIRECTION ( 'NONE',  ( -0.0000000000000000000, -0.0000000000000000000, -1.000000000000000000 ) ) ;
#275 = VECTOR ( 'NONE', #274, 1000.000000000000000 ) ;
#276 = LINE ( 'NONE', #280, #275 ) ;
#277 = DIRECTION ( 'NONE',  ( 0.0000000000000000000, -0.0000000000000000000, 1.000000000000000000 ) ) ;
#278 = CARTESIAN_POINT ( 'NONE',  ( 100.0000000000000000, 4.000000000000000000, 32.00000000000000000 ) ) ;
#279 = LINE ( 'NONE', #278, #167 ) ;
#280 = CARTESIAN_POINT ( 'NONE',  ( 0.0000000000000000000, -4.000000000000000000, 10.50000000000000000 ) ) ;
#281 = PLANE ( 'NONE',  #287 ) ;
#282 = PLANE ( 'NONE',  #64 ) ;
#283 = DIRECTION ( 'NONE',  ( -0.0000000000000000000, -1.000000000000000000, -0.0000000000000000000 ) ) ;
#284 = VECTOR ( 'NONE', #283, 1000.000000000000000 ) ;
#285 = CARTESIAN_POINT ( 'NONE',  ( 0.0000000000000000000, -4.000000000000000000, 32.00000000000000000 ) ) ;
#286 = LINE ( 'NONE', #285, #284 ) ;
#287 = AXIS2_PLACEMENT_3D ( 'NONE', #164, #160, #159 ) ;
#288 = DIRECTION ( 'NONE',  ( -1.000000000000000000, -0.0000000000000000000, -0.0000000000000000000 ) ) ;
#289 = VECTOR ( 'NONE', #288, 1000.000000000000000 ) ;
#290 = CARTESIAN_POINT ( 'NONE',  ( 100.0000000000000000, -4.000000000000000000, 32.00000000000000000 ) ) ;
#291 = CARTESIAN_POINT ( 'NONE',  ( 0.0000000000000000000, 4.000000000000001800, -9.164003347034070400E-016 ) ) ;
#292 = DIRECTION ( 'NONE',  ( -1.000000000000000000, -0.0000000000000000000, -0.0000000000000000000 ) ) ;
#293 = VECTOR ( 'NONE', #292, 1000.000000000000000 ) ;
#294 = LINE ( 'NONE', #297, #293 ) ;
#295 = DIRECTION ( 'NONE',  ( -1.000000000000000000, 0.0000000000000000000, -0.0000000000000000000 ) ) ;
#296 = LINE ( 'NONE', #290, #289 ) ;
#297 = CARTESIAN_POINT ( 'NONE',  ( 100.0000000000000000, -4.000000000000000000, 10.50000000000000000 ) ) ;
#298 = DIRECTION ( 'NONE',  ( 0.0000000000000000000, -0.0000000000000000000, -1.000000000000000000 ) ) ;
#299 = DIRECTION ( 'NONE',  ( 0.0000000000000000000, -1.000000000000000000, 0.0000000000000000000 ) ) ;
#300 = CARTESIAN_POINT ( 'NONE',  ( 100.0000000000000000, 4.000000000000000000, 32.00000000000000000 ) ) ;
#301 = DIRECTION ( 'NONE',  ( -1.000000000000000000, 0.0000000000000000000, 0.0000000000000000000 ) ) ;
#302 = CARTESIAN_POINT ( 'NONE',  ( 0.0000000000000000000, 4.000000000000000000, 32.00000000000000000 ) ) ;
#303 = FACE_OUTER_BOUND ( 'NONE', #168, .T. ) ;
#304 = AXIS2_PLACEMENT_3D ( 'NONE', #302, #301, #317 ) ;
#305 = CARTESIAN_POINT ( 'NONE',  ( 0.0000000000000000000, 6.750000000000000900, 10.50000000000000000 ) ) ;
#306 = LINE ( 'NONE', #305, #322 ) ;
#307 = PLANE ( 'NONE',  #319 ) ;
#308 = CARTESIAN_POINT ( 'NONE',  ( 0.0000000000000000000, 4.000000000000000000, 32.00000000000000000 ) ) ;
#309 = CARTESIAN_POINT ( 'NONE',  ( 100.0000000000000000, 4.000000000000001800, -9.164003347034070400E-016 ) ) ;
#310 = DIRECTION ( 'NONE',  ( -1.000000000000000000, -0.0000000000000000000, -0.0000000000000000000 ) ) ;
#311 = VECTOR ( 'NONE', #310, 1000.000000000000000 ) ;
#312 = CARTESIAN_POINT ( 'NONE',  ( 100.0000000000000000, 6.750000000000000900, 10.50000000000000000 ) ) ;
#313 = CARTESIAN_POINT ( 'NONE',  ( 100.0000000000000000, 6.750000000000000900, 10.50000000000000000 ) ) ;
#314 =( LENGTH_UNIT ( ) NAMED_UNIT ( * ) SI_UNIT ( .MILLI., .METRE. ) );
#315 = CARTESIAN_POINT ( 'NONE',  ( 0.0000000000000000000, 0.0000000000000000000, 0.0000000000000000000 ) ) ;
#316 = PLANE ( 'NONE',  #336 ) ;
#317 = DIRECTION ( 'NONE',  ( 0.0000000000000000000, 0.0000000000000000000, 1.000000000000000000 ) ) ;
#318 = CARTESIAN_POINT ( 'NONE',  ( 100.0000000000000000, 4.000000000000001800, -9.164003347034070400E-016 ) ) ;
#319 = AXIS2_PLACEMENT_3D ( 'NONE', #300, #299, #298 ) ;
#320 = CARTESIAN_POINT ( 'NONE',  ( 100.0000000000000000, 6.749999999999992000, 2.749999999999999100 ) ) ;
#321 = DIRECTION ( 'NONE',  ( -0.0000000000000000000, 1.119176436114068800E-015, 1.000000000000000000 ) ) ;
#322 = VECTOR ( 'NONE', #321, 1000.000000000000000 ) ;
#323 = CARTESIAN_POINT ( 'NONE',  ( 0.0000000000000000000, 6.749999999999992000, 2.749999999999999100 ) ) ;
#324 =( GEOMETRIC_REPRESENTATION_CONTEXT ( 3 ) GLOBAL_UNCERTAINTY_ASSIGNED_CONTEXT ( ( #325 ) ) GLOBAL_UNIT_ASSIGNED_CONTEXT ( ( #314, #327, #326 ) ) REPRESENTATION_CONTEXT ( 'NONE', 'WORKASPACE' ) );
#325 = UNCERTAINTY_MEASURE_WITH_UNIT (LENGTH_MEASURE( 1.000000000000000100E-005 ), #314, 'distance_accuracy_value', 'NONE');
#326 =( NAMED_UNIT ( * ) SI_UNIT ( $, .STERADIAN. ) SOLID_ANGLE_UNIT ( ) );
#327 =( NAMED_UNIT ( * ) PLANE_ANGLE_UNIT ( ) SI_UNIT ( $, .RADIAN. ) );
#328 = DIRECTION ( 'NONE',  ( -0.0000000000000000000, 0.7071067811865463500, 0.7071067811865487900 ) ) ;
#329 = VECTOR ( 'NONE', #328, 1000.000000000000000 ) ;
#330 = LINE ( 'NONE', #338, #329 ) ;
#331 = DIRECTION ( 'NONE',  ( -1.000000000000000000, -0.0000000000000000000, -0.0000000000000000000 ) ) ;
#332 = VECTOR ( 'NONE', #331, 1000.000000000000000 ) ;
#333 = LINE ( 'NONE', #318, #332 ) ;
#334 = DIRECTION ( 'NONE',  ( 0.0000000000000000000, -0.7071067811865462400, -0.7071067811865489100 ) ) ;
#335 = DIRECTION ( 'NONE',  ( 0.0000000000000000000, -0.7071067811865489100, 0.7071067811865462400 ) ) ;
#336 = AXIS2_PLACEMENT_3D ( 'NONE', #320, #335, #334 ) ;
#337 = FACE_OUTER_BOUND ( 'NONE', #174, .T. ) ;
#338 = CARTESIAN_POINT ( 'NONE',  ( 100.0000000000000000, 6.749999999999992000, 2.749999999999999100 ) ) ;
#339 = CARTESIAN_POINT ( 'NONE',  ( 100.0000000000000000, 4.000000000000000000, 32.00000000000000000 ) ) ;
#340 = LINE ( 'NONE', #339, #342 ) ;
#341 = DIRECTION ( 'NONE',  ( -0.0000000000000000000, -0.0000000000000000000, 1.000000000000000000 ) ) ;
#342 = VECTOR ( 'NONE', #341, 1000.000000000000000 ) ;
#343 = DIRECTION ( 'NONE',  ( -0.0000000000000000000, -0.0000000000000000000, 1.000000000000000000 ) ) ;
#344 = APPROVAL_STATUS ( 'not_yet_approved' ) ;
#345 = PERSON_AND_ORGANIZATION ( #354, #353 ) ;
#346 = PRODUCT_DEFINITION ( 'NON CONOSCIUTO', '', #375, #347 ) ;
#347 = DESIGN_CONTEXT ( 'detailed design', #349, 'design' ) ;
#348 = APPLICATION_PROTOCOL_DEFINITION ( 'international standard', 'config_control_design', 1994, #349 ) ;
#349 = APPLICATION_CONTEXT ( 'configuration controlled 3d designs of mechanical parts and assemblies' ) ;
#350 = CC_DESIGN_PERSON_AND_ORGANIZATION_ASSIGNMENT ( #352, #351, ( #355 ) ) ;
#351 = PERSON_AND_ORGANIZATION_ROLE ( 'design_owner' ) ;
#352 = PERSON_AND_ORGANIZATION ( #354, #353 ) ;
#353 = ORGANIZATION ( 'NON SPECIFICATO', 'NON SPECIFICATO', '' ) ;
#354 = PERSON ( 'NON SPECIFICATO', 'NON SPECIFICATO', 'NON SPECIFICATO', ('NON SPECIFICATO'), ('NON SPECIFICATO'), ('NON SPECIFICATO') ) ;
#355 = PRODUCT ( '084.514.001', '084.514.001', '', ( #396 ) ) ;
#356 = PERSON_AND_ORGANIZATION_ROLE ( 'classification_officer' ) ;
#357 = SECURITY_CLASSIFICATION_LEVEL ( 'unclassified' ) ;
#358 = CC_DESIGN_PERSON_AND_ORGANIZATION_ASSIGNMENT ( #360, #359, ( #375 ) ) ;
#359 = PERSON_AND_ORGANIZATION_ROLE ( 'design_supplier' ) ;
#360 = PERSON_AND_ORGANIZATION ( #354, #353 ) ;
#361 = CC_DESIGN_PERSON_AND_ORGANIZATION_ASSIGNMENT ( #363, #362, ( #375 ) ) ;
#362 = PERSON_AND_ORGANIZATION_ROLE ( 'creator' ) ;
#363 = PERSON_AND_ORGANIZATION ( #354, #353 ) ;
#364 = CC_DESIGN_APPROVAL ( #372, ( #375 ) ) ;
#365 = APPROVAL_DATE_TIME ( #366, #372 ) ;
#366 = DATE_AND_TIME ( #367, #368 ) ;
#367 = CALENDAR_DATE ( 2013, 28, 1 ) ;
#368 = LOCAL_TIME ( 14, 16, 8.000000000000000000, #369 ) ;
#369 = COORDINATED_UNIVERSAL_TIME_OFFSET ( 1, 0, .AHEAD. ) ;
#370 = APPROVAL_PERSON_ORGANIZATION ( #374, #372, #371 ) ;
#371 = APPROVAL_ROLE ( '' ) ;
#372 = APPROVAL ( #373, 'NON SPECIFICATO' ) ;
#373 = APPROVAL_STATUS ( 'not_yet_approved' ) ;
#374 = PERSON_AND_ORGANIZATION ( #354, #353 ) ;
#375 = PRODUCT_DEFINITION_FORMATION_WITH_SPECIFIED_SOURCE ( 'TUTTO', '', #355, .NOT_KNOWN. ) ;
#376 = CC_DESIGN_DATE_AND_TIME_ASSIGNMENT ( #378, #377, ( #346 ) ) ;
#377 = DATE_TIME_ROLE ( 'creation_date' ) ;
#378 = DATE_AND_TIME ( #379, #380 ) ;
#379 = CALENDAR_DATE ( 2013, 28, 1 ) ;
#380 = LOCAL_TIME ( 14, 16, 8.000000000000000000, #381 ) ;
#381 = COORDINATED_UNIVERSAL_TIME_OFFSET ( 1, 0, .AHEAD. ) ;
#382 = CC_DESIGN_PERSON_AND_ORGANIZATION_ASSIGNMENT ( #384, #383, ( #346 ) ) ;
#383 = PERSON_AND_ORGANIZATION_ROLE ( 'creator' ) ;
#384 = PERSON_AND_ORGANIZATION ( #354, #353 ) ;
#385 = CC_DESIGN_APPROVAL ( #393, ( #346 ) ) ;
#386 = APPROVAL_DATE_TIME ( #387, #393 ) ;
#387 = DATE_AND_TIME ( #388, #389 ) ;
#388 = CALENDAR_DATE ( 2013, 28, 1 ) ;
#389 = LOCAL_TIME ( 14, 16, 8.000000000000000000, #390 ) ;
#390 = COORDINATED_UNIVERSAL_TIME_OFFSET ( 1, 0, .AHEAD. ) ;
#391 = APPROVAL_PERSON_ORGANIZATION ( #345, #393, #392 ) ;
#392 = APPROVAL_ROLE ( '' ) ;
#393 = APPROVAL ( #344, 'NON SPECIFICATO' ) ;
#394 = FACE_OUTER_BOUND ( 'NONE', #95, .T. ) ;
#395 = LINE ( 'NONE', #430, #434 ) ;
#396 = MECHANICAL_CONTEXT ( 'NONE', #402, 'mechanical' ) ;
#397 = SHAPE_DEFINITION_REPRESENTATION ( #404, #403 ) ;
#398 = DIRECTION ( 'NONE',  ( 1.000000000000000000, 0.0000000000000000000, 0.0000000000000000000 ) ) ;
#399 = AXIS2_PLACEMENT_3D ( 'NONE', #315, #400, #398 ) ;
#400 = DIRECTION ( 'NONE',  ( 0.0000000000000000000, 0.0000000000000000000, 1.000000000000000000 ) ) ;
#401 = APPLICATION_PROTOCOL_DEFINITION ( 'international standard', 'config_control_design', 1994, #402 ) ;
#402 = APPLICATION_CONTEXT ( 'configuration controlled 3d designs of mechanical parts and assemblies' ) ;
#403 = ADVANCED_BREP_SHAPE_REPRESENTATION ( '084.514.001', ( #37, #399 ), #324 ) ;
#404 = PRODUCT_DEFINITION_SHAPE ( 'NONE', 'NONE',  #346 ) ;
#405 = PRODUCT_RELATED_PRODUCT_CATEGORY ( 'detail', '', ( #355 ) ) ;
#406 = CC_DESIGN_SECURITY_CLASSIFICATION ( #426, ( #375 ) ) ;
#407 = CC_DESIGN_APPROVAL ( #415, ( #426 ) ) ;
#408 = APPROVAL_DATE_TIME ( #409, #415 ) ;
#409 = DATE_AND_TIME ( #410, #411 ) ;
#410 = CALENDAR_DATE ( 2013, 28, 1 ) ;
#411 = LOCAL_TIME ( 14, 16, 8.000000000000000000, #412 ) ;
#412 = COORDINATED_UNIVERSAL_TIME_OFFSET ( 1, 0, .AHEAD. ) ;
#413 = APPROVAL_PERSON_ORGANIZATION ( #417, #415, #414 ) ;
#414 = APPROVAL_ROLE ( '' ) ;
#415 = APPROVAL ( #416, 'NON SPECIFICATO' ) ;
#416 = APPROVAL_STATUS ( 'not_yet_approved' ) ;
#417 = PERSON_AND_ORGANIZATION ( #354, #353 ) ;
#418 = CC_DESIGN_DATE_AND_TIME_ASSIGNMENT ( #420, #419, ( #426 ) ) ;
#419 = DATE_TIME_ROLE ( 'classification_date' ) ;
#420 = DATE_AND_TIME ( #421, #422 ) ;
#421 = CALENDAR_DATE ( 2013, 28, 1 ) ;
#422 = LOCAL_TIME ( 14, 16, 8.000000000000000000, #423 ) ;
#423 = COORDINATED_UNIVERSAL_TIME_OFFSET ( 1, 0, .AHEAD. ) ;
#424 = CC_DESIGN_PERSON_AND_ORGANIZATION_ASSIGNMENT ( #425, #356, ( #426 ) ) ;
#425 = PERSON_AND_ORGANIZATION ( #354, #353 ) ;
#426 = SECURITY_CLASSIFICATION ( '', '', #357 ) ;
#427 = LINE ( 'NONE', #312, #311 ) ;
#428 = CARTESIAN_POINT ( 'NONE',  ( 0.0000000000000000000, 6.750000000000000900, 10.50000000000000000 ) ) ;
#429 = DIRECTION ( 'NONE',  ( -0.0000000000000000000, 1.000000000000000000, -0.0000000000000000000 ) ) ;
#430 = CARTESIAN_POINT ( 'NONE',  ( 100.0000000000000000, 4.000000000000001800, -9.164003347034070400E-016 ) ) ;
#431 = VECTOR ( 'NONE', #343, 1000.000000000000000 ) ;
#432 = LINE ( 'NONE', #308, #431 ) ;
#433 = PLANE ( 'NONE',  #304 ) ;
#434 = VECTOR ( 'NONE', #429, 1000.000000000000000 ) ;
#435 = CARTESIAN_POINT ( 'NONE',  ( 0.0000000000000000000, 4.000000000000000000, 10.50000000000000000 ) ) ;
ENDSEC;
END-ISO-10303-21;
