ISO-10303-21;
HEADER;
FILE_DESCRIPTION (( 'STEP AP214' ),
    '1' );
FILE_NAME ('084.403.002.STEP',
    '2014-03-12T10:00:52',
    ( '' ),
    ( '' ),
    'SwSTEP 2.0',
    'SolidWorks 2011',
    '' );
FILE_SCHEMA (( 'AUTOMOTIVE_DESIGN' ));
ENDSEC;

DATA;
#1 = SURFACE_STYLE_FILL_AREA ( #207 ) ;
#2 = PRESENTATION_STYLE_ASSIGNMENT (( #206 ) ) ;
#3 =( LENGTH_UNIT ( ) NAMED_UNIT ( * ) SI_UNIT ( $, .METRE. ) );
#4 = LENGTH_MEASURE_WITH_UNIT ( LENGTH_MEASURE( 0.02539999999999999900 ), #3 );
#5 =( CONVERSION_BASED_UNIT ( 'INCH', #4 ) LENGTH_UNIT ( ) NAMED_UNIT ( #146 ) );
#6 =( NAMED_UNIT ( * ) PLANE_ANGLE_UNIT ( ) SI_UNIT ( $, .RADIAN. ) );
#7 =( NAMED_UNIT ( * ) SI_UNIT ( $, .STERADIAN. ) SOLID_ANGLE_UNIT ( ) );
#8 = CARTESIAN_POINT ( 'NONE',  ( -20.50000000000000000, 0.0000000000000000000, 0.0000000000000000000 ) ) ;
#9 = CARTESIAN_POINT ( 'NONE',  ( -25.00000000000000000, 3.061616997868383000E-015, 0.0000000000000000000 ) ) ;
#10 = CARTESIAN_POINT ( 'NONE',  ( 20.50000000000000000, 2.510525938252073700E-015, 2.549999999999999800 ) ) ;
#11 = CARTESIAN_POINT ( 'NONE',  ( 8.000000000000000000, 0.0000000000000000000, 2.549999999999999800 ) ) ;
#12 = CARTESIAN_POINT ( 'NONE',  ( -8.000000000000000000, 9.797174393178825700E-016, 2.549999999999999800 ) ) ;
#13 = CARTESIAN_POINT ( 'NONE',  ( -8.000000000000000000, 9.797174393178825700E-016, 0.0000000000000000000 ) ) ;
#14 = CARTESIAN_POINT ( 'NONE',  ( 25.00000000000000000, 0.0000000000000000000, 0.0000000000000000000 ) ) ;
#15 = CARTESIAN_POINT ( 'NONE',  ( -20.50000000000000000, 0.0000000000000000000, 2.549999999999999800 ) ) ;
#16 = CARTESIAN_POINT ( 'NONE',  ( 0.0000000000000000000, 0.0000000000000000000, 2.549999999999999800 ) ) ;
#17 = DIRECTION ( 'NONE',  ( 0.0000000000000000000, 0.0000000000000000000, 1.000000000000000000 ) ) ;
#18 = DIRECTION ( 'NONE',  ( 1.000000000000000000, 0.0000000000000000000, 0.0000000000000000000 ) ) ;
#19 = CARTESIAN_POINT ( 'NONE',  ( 0.0000000000000000000, 0.0000000000000000000, -2.700000000000000200 ) ) ;
#20 = DIRECTION ( 'NONE',  ( 0.0000000000000000000, 0.0000000000000000000, 1.000000000000000000 ) ) ;
#21 = DIRECTION ( 'NONE',  ( 1.000000000000000000, 0.0000000000000000000, 0.0000000000000000000 ) ) ;
#22 = LINE ( 'NONE', #15, #164 ) ;
#23 = CARTESIAN_POINT ( 'NONE',  ( 0.0000000000000000000, 0.0000000000000000000, 0.0000000000000000000 ) ) ;
#24 = DIRECTION ( 'NONE',  ( 0.0000000000000000000, 0.0000000000000000000, 1.000000000000000000 ) ) ;
#25 = DIRECTION ( 'NONE',  ( 1.000000000000000000, 0.0000000000000000000, 0.0000000000000000000 ) ) ;
#26 = DIRECTION ( 'NONE',  ( -0.0000000000000000000, -0.0000000000000000000, -1.000000000000000000 ) ) ;
#27 = CARTESIAN_POINT ( 'NONE',  ( 0.0000000000000000000, 0.0000000000000000000, 0.0000000000000000000 ) ) ;
#28 = DIRECTION ( 'NONE',  ( 0.0000000000000000000, 0.0000000000000000000, 1.000000000000000000 ) ) ;
#29 = DIRECTION ( 'NONE',  ( 1.000000000000000000, 0.0000000000000000000, 0.0000000000000000000 ) ) ;
#30 = CARTESIAN_POINT ( 'NONE',  ( 0.0000000000000000000, 0.0000000000000000000, 0.0000000000000000000 ) ) ;
#31 = DIRECTION ( 'NONE',  ( 0.0000000000000000000, 0.0000000000000000000, 1.000000000000000000 ) ) ;
#32 = DIRECTION ( 'NONE',  ( 1.000000000000000000, 0.0000000000000000000, 0.0000000000000000000 ) ) ;
#33 = CARTESIAN_POINT ( 'NONE',  ( 0.0000000000000000000, 0.0000000000000000000, -2.700000000000000200 ) ) ;
#34 = DIRECTION ( 'NONE',  ( 0.0000000000000000000, 0.0000000000000000000, 1.000000000000000000 ) ) ;
#35 = DIRECTION ( 'NONE',  ( 1.000000000000000000, 0.0000000000000000000, 0.0000000000000000000 ) ) ;
#36 = CARTESIAN_POINT ( 'NONE',  ( 0.0000000000000000000, 0.0000000000000000000, 0.0000000000000000000 ) ) ;
#37 = DIRECTION ( 'NONE',  ( 0.0000000000000000000, 0.0000000000000000000, 1.000000000000000000 ) ) ;
#38 = DIRECTION ( 'NONE',  ( 1.000000000000000000, 0.0000000000000000000, 0.0000000000000000000 ) ) ;
#39 = CARTESIAN_POINT ( 'NONE',  ( 8.000000000000000000, 0.0000000000000000000, 0.0000000000000000000 ) ) ;
#40 = CARTESIAN_POINT ( 'NONE',  ( 0.0000000000000000000, 0.0000000000000000000, 0.0000000000000000000 ) ) ;
#41 = DIRECTION ( 'NONE',  ( 0.0000000000000000000, 0.0000000000000000000, 1.000000000000000000 ) ) ;
#42 = DIRECTION ( 'NONE',  ( 1.000000000000000000, 0.0000000000000000000, 0.0000000000000000000 ) ) ;
#43 = LINE ( 'NONE', #39, #171 ) ;
#44 = CARTESIAN_POINT ( 'NONE',  ( 0.0000000000000000000, 0.0000000000000000000, 2.549999999999999800 ) ) ;
#45 = DIRECTION ( 'NONE',  ( 0.0000000000000000000, 0.0000000000000000000, 1.000000000000000000 ) ) ;
#46 = DIRECTION ( 'NONE',  ( 1.000000000000000000, 0.0000000000000000000, 0.0000000000000000000 ) ) ;
#47 = DIRECTION ( 'NONE',  ( -0.0000000000000000000, -0.0000000000000000000, 1.000000000000000000 ) ) ;
#48 = LINE ( 'NONE', #49, #179 ) ;
#49 = CARTESIAN_POINT ( 'NONE',  ( 25.00000000000000000, 0.0000000000000000000, -2.700000000000000200 ) ) ;
#50 = DIRECTION ( 'NONE',  ( 0.0000000000000000000, 0.0000000000000000000, 1.000000000000000000 ) ) ;
#51 = LINE ( 'NONE', #52, #183 ) ;
#52 = CARTESIAN_POINT ( 'NONE',  ( -8.000000000000000000, 9.797174393178825700E-016, 0.0000000000000000000 ) ) ;
#53 = CARTESIAN_POINT ( 'NONE',  ( 0.0000000000000000000, 0.0000000000000000000, 2.549999999999999800 ) ) ;
#54 = DIRECTION ( 'NONE',  ( 0.0000000000000000000, 0.0000000000000000000, 1.000000000000000000 ) ) ;
#55 = DIRECTION ( 'NONE',  ( 1.000000000000000000, 0.0000000000000000000, 0.0000000000000000000 ) ) ;
#56 = CARTESIAN_POINT ( 'NONE',  ( 20.50000000000000000, 2.510525938252073700E-015, 2.549999999999999800 ) ) ;
#57 = LINE ( 'NONE', #63, #177 ) ;
#58 = CARTESIAN_POINT ( 'NONE',  ( 0.0000000000000000000, 0.0000000000000000000, 0.0000000000000000000 ) ) ;
#59 = DIRECTION ( 'NONE',  ( 0.0000000000000000000, 0.0000000000000000000, 1.000000000000000000 ) ) ;
#60 = DIRECTION ( 'NONE',  ( 1.000000000000000000, 0.0000000000000000000, 0.0000000000000000000 ) ) ;
#61 = LINE ( 'NONE', #56, #186 ) ;
#62 = DIRECTION ( 'NONE',  ( -0.0000000000000000000, -0.0000000000000000000, 1.000000000000000000 ) ) ;
#63 = CARTESIAN_POINT ( 'NONE',  ( -25.00000000000000000, 3.061616997868383000E-015, -2.700000000000000200 ) ) ;
#64 = DIRECTION ( 'NONE',  ( 0.0000000000000000000, 0.0000000000000000000, 1.000000000000000000 ) ) ;
#65 = FACE_OUTER_BOUND ( 'NONE', #247, .T. ) ;
#66 = CYLINDRICAL_SURFACE ( 'NONE', #189, 8.000000000000000000 ) ;
#67 = CARTESIAN_POINT ( 'NONE',  ( 0.0000000000000000000, 0.0000000000000000000, 2.549999999999999800 ) ) ;
#68 = DIRECTION ( 'NONE',  ( 0.0000000000000000000, 0.0000000000000000000, 1.000000000000000000 ) ) ;
#69 = DIRECTION ( 'NONE',  ( 1.000000000000000000, 0.0000000000000000000, 0.0000000000000000000 ) ) ;
#70 = CARTESIAN_POINT ( 'NONE',  ( 0.0000000000000000000, 0.0000000000000000000, 0.0000000000000000000 ) ) ;
#71 = DIRECTION ( 'NONE',  ( -0.0000000000000000000, -0.0000000000000000000, -1.000000000000000000 ) ) ;
#72 = DIRECTION ( 'NONE',  ( -0.0000000000000000000, -0.0000000000000000000, 1.000000000000000000 ) ) ;
#73 = DIRECTION ( 'NONE',  ( -0.0000000000000000000, -0.0000000000000000000, -1.000000000000000000 ) ) ;
#74 = DIRECTION ( 'NONE',  ( 1.000000000000000000, 0.0000000000000000000, 0.0000000000000000000 ) ) ;
#75 = CYLINDRICAL_SURFACE ( 'NONE', #190, 20.50000000000000000 ) ;
#76 = FACE_OUTER_BOUND ( 'NONE', #259, .T. ) ;
#77 = CARTESIAN_POINT ( 'NONE',  ( 0.0000000000000000000, 0.0000000000000000000, 2.549999999999999800 ) ) ;
#78 = DIRECTION ( 'NONE',  ( 0.0000000000000000000, 0.0000000000000000000, 1.000000000000000000 ) ) ;
#79 = DIRECTION ( 'NONE',  ( -1.000000000000000000, 0.0000000000000000000, 0.0000000000000000000 ) ) ;
#80 = CYLINDRICAL_SURFACE ( 'NONE', #191, 25.00000000000000000 ) ;
#81 = FACE_OUTER_BOUND ( 'NONE', #253, .T. ) ;
#82 = CARTESIAN_POINT ( 'NONE',  ( 0.0000000000000000000, 0.0000000000000000000, -2.700000000000000200 ) ) ;
#83 = DIRECTION ( 'NONE',  ( 0.0000000000000000000, 0.0000000000000000000, 1.000000000000000000 ) ) ;
#84 = DIRECTION ( 'NONE',  ( 1.000000000000000000, 0.0000000000000000000, 0.0000000000000000000 ) ) ;
#85 = CARTESIAN_POINT ( 'NONE',  ( 0.0000000000000000000, 0.0000000000000000000, 0.0000000000000000000 ) ) ;
#86 = FACE_OUTER_BOUND ( 'NONE', #250, .T. ) ;
#87 = CARTESIAN_POINT ( 'NONE',  ( 0.0000000000000000000, 0.0000000000000000000, -2.700000000000000200 ) ) ;
#88 = FACE_BOUND ( 'NONE', #254, .T. ) ;
#89 = PLANE ( 'NONE',  #192 ) ;
#90 = DIRECTION ( 'NONE',  ( 0.0000000000000000000, 0.0000000000000000000, 1.000000000000000000 ) ) ;
#91 = DIRECTION ( 'NONE',  ( 1.000000000000000000, 0.0000000000000000000, -0.0000000000000000000 ) ) ;
#92 = CYLINDRICAL_SURFACE ( 'NONE', #193, 25.00000000000000000 ) ;
#93 = FACE_OUTER_BOUND ( 'NONE', #251, .T. ) ;
#94 = CARTESIAN_POINT ( 'NONE',  ( 0.0000000000000000000, 0.0000000000000000000, -2.700000000000000200 ) ) ;
#95 = DIRECTION ( 'NONE',  ( 1.000000000000000000, 0.0000000000000000000, 0.0000000000000000000 ) ) ;
#96 = CARTESIAN_POINT ( 'NONE',  ( 0.0000000000000000000, 0.0000000000000000000, 2.549999999999999800 ) ) ;
#97 = FACE_OUTER_BOUND ( 'NONE', #260, .T. ) ;
#98 = PLANE ( 'NONE',  #194 ) ;
#99 = DIRECTION ( 'NONE',  ( -0.0000000000000000000, -0.0000000000000000000, -1.000000000000000000 ) ) ;
#100 = DIRECTION ( 'NONE',  ( 0.0000000000000000000, 0.0000000000000000000, 1.000000000000000000 ) ) ;
#101 = DIRECTION ( 'NONE',  ( 1.000000000000000000, 0.0000000000000000000, -0.0000000000000000000 ) ) ;
#102 = CYLINDRICAL_SURFACE ( 'NONE', #195, 20.50000000000000000 ) ;
#103 = FACE_OUTER_BOUND ( 'NONE', #255, .T. ) ;
#104 = DIRECTION ( 'NONE',  ( 0.0000000000000000000, 0.0000000000000000000, 1.000000000000000000 ) ) ;
#105 = DIRECTION ( 'NONE',  ( -1.000000000000000000, 0.0000000000000000000, 0.0000000000000000000 ) ) ;
#106 = CARTESIAN_POINT ( 'NONE',  ( 0.0000000000000000000, 0.0000000000000000000, 2.549999999999999800 ) ) ;
#107 = FACE_BOUND ( 'NONE', #249, .T. ) ;
#108 = CARTESIAN_POINT ( 'NONE',  ( 0.0000000000000000000, 0.0000000000000000000, 0.0000000000000000000 ) ) ;
#109 = FACE_OUTER_BOUND ( 'NONE', #258, .T. ) ;
#110 = PLANE ( 'NONE',  #196 ) ;
#111 = DIRECTION ( 'NONE',  ( -0.0000000000000000000, -0.0000000000000000000, 1.000000000000000000 ) ) ;
#112 = DIRECTION ( 'NONE',  ( 1.000000000000000000, 0.0000000000000000000, -0.0000000000000000000 ) ) ;
#113 = CYLINDRICAL_SURFACE ( 'NONE', #197, 8.000000000000000000 ) ;
#114 = FACE_OUTER_BOUND ( 'NONE', #257, .T. ) ;
#115 = CARTESIAN_POINT ( 'NONE',  ( 0.0000000000000000000, 0.0000000000000000000, 0.0000000000000000000 ) ) ;
#116 = DIRECTION ( 'NONE',  ( 1.000000000000000000, 0.0000000000000000000, 0.0000000000000000000 ) ) ;
#117 = FACE_OUTER_BOUND ( 'NONE', #252, .T. ) ;
#118 = PLANE ( 'NONE',  #198 ) ;
#119 = DIRECTION ( 'NONE',  ( 0.0000000000000000000, 0.0000000000000000000, 1.000000000000000000 ) ) ;
#120 = DIRECTION ( 'NONE',  ( 1.000000000000000000, 0.0000000000000000000, -0.0000000000000000000 ) ) ;
#121 =( LENGTH_UNIT ( ) NAMED_UNIT ( * ) SI_UNIT ( $, .METRE. ) );
#122 = LENGTH_MEASURE_WITH_UNIT ( LENGTH_MEASURE( 0.02539999999999999900 ), #121 );
#123 =( CONVERSION_BASED_UNIT ( 'INCH', #122 ) LENGTH_UNIT ( ) NAMED_UNIT ( #145 ) );
#124 =( NAMED_UNIT ( * ) PLANE_ANGLE_UNIT ( ) SI_UNIT ( $, .RADIAN. ) );
#125 =( NAMED_UNIT ( * ) SI_UNIT ( $, .STERADIAN. ) SOLID_ANGLE_UNIT ( ) );
#126 = PRODUCT_CONTEXT ( 'NONE', #261, 'mechanical' ) ;
#127 = SHAPE_DEFINITION_REPRESENTATION ( #265, #248 ) ;
#128 = APPLICATION_PROTOCOL_DEFINITION ( 'draft international standard', 'automotive_design', 1998, #261 ) ;
#129 = FILL_AREA_STYLE_COLOUR ( '', #200 ) ;
#130 = FILL_AREA_STYLE ('',( #129 ) ) ;
#131 = SURFACE_STYLE_FILL_AREA ( #130 ) ;
#132 = SURFACE_SIDE_STYLE ('',( #131 ) ) ;
#133 = SURFACE_STYLE_USAGE ( .BOTH. , #132 ) ;
#134 = PRESENTATION_STYLE_ASSIGNMENT (( #133 ) ) ;
#135 =( LENGTH_UNIT ( ) NAMED_UNIT ( * ) SI_UNIT ( $, .METRE. ) );
#136 = LENGTH_MEASURE_WITH_UNIT ( LENGTH_MEASURE( 0.02539999999999999900 ), #135 );
#137 =( CONVERSION_BASED_UNIT ( 'INCH', #136 ) LENGTH_UNIT ( ) NAMED_UNIT ( #147 ) );
#138 =( NAMED_UNIT ( * ) PLANE_ANGLE_UNIT ( ) SI_UNIT ( $, .RADIAN. ) );
#139 =( NAMED_UNIT ( * ) SI_UNIT ( $, .STERADIAN. ) SOLID_ANGLE_UNIT ( ) );
#140 = CARTESIAN_POINT ( 'NONE',  ( 0.0000000000000000000, 0.0000000000000000000, 0.0000000000000000000 ) ) ;
#141 = DIRECTION ( 'NONE',  ( 0.0000000000000000000, 0.0000000000000000000, 1.000000000000000000 ) ) ;
#142 = DIRECTION ( 'NONE',  ( 1.000000000000000000, 0.0000000000000000000, 0.0000000000000000000 ) ) ;
#143 = APPLICATION_PROTOCOL_DEFINITION ( 'draft international standard', 'automotive_design', 1998, #262 ) ;
#144 = PRODUCT ( '084.403.002', '084.403.002', '', ( #126 ) ) ;
#145 = DIMENSIONAL_EXPONENTS ( 1.000000000000000000, 0.0000000000000000000, 0.0000000000000000000, 0.0000000000000000000, 0.0000000000000000000, 0.0000000000000000000, 0.0000000000000000000 ) ;
#146 = DIMENSIONAL_EXPONENTS ( 1.000000000000000000, 0.0000000000000000000, 0.0000000000000000000, 0.0000000000000000000, 0.0000000000000000000, 0.0000000000000000000, 0.0000000000000000000 ) ;
#147 = DIMENSIONAL_EXPONENTS ( 1.000000000000000000, 0.0000000000000000000, 0.0000000000000000000, 0.0000000000000000000, 0.0000000000000000000, 0.0000000000000000000, 0.0000000000000000000 ) ;
#148 = VERTEX_POINT ( 'NONE', #150 ) ;
#149 = VERTEX_POINT ( 'NONE', #151 ) ;
#150 = CARTESIAN_POINT ( 'NONE',  ( -25.00000000000000000, 3.061616997868383000E-015, -2.700000000000000200 ) ) ;
#151 = CARTESIAN_POINT ( 'NONE',  ( -20.50000000000000000, 0.0000000000000000000, 2.549999999999999800 ) ) ;
#152 = PRESENTATION_LAYER_ASSIGNMENT (  '', '', ( #157 ) ) ;
#153 = MECHANICAL_DESIGN_GEOMETRIC_PRESENTATION_REPRESENTATION (  '', ( #157 ), #154 ) ;
#154 =( GEOMETRIC_REPRESENTATION_CONTEXT ( 3 ) GLOBAL_UNCERTAINTY_ASSIGNED_CONTEXT ( ( #268 ) ) GLOBAL_UNIT_ASSIGNED_CONTEXT ( ( #5, #6, #7 ) ) REPRESENTATION_CONTEXT ( 'NONE', 'WORKASPACE' ) );
#155 = COLOUR_RGB ( '',0.7921568627450980000, 0.8196078431372548800, 0.9333333333333333500 ) ;
#156 = CLOSED_SHELL ( 'NONE', ( #298, #299, #300, #301, #302, #303, #304, #305, #306, #307 ) ) ;
#157 = STYLED_ITEM ( 'NONE', ( #2 ), #264 ) ;
#158 = CIRCLE ( 'NONE', #172, 25.00000000000000000 ) ;
#159 = CIRCLE ( 'NONE', #170, 8.000000000000000000 ) ;
#160 = CIRCLE ( 'NONE', #163, 25.00000000000000000 ) ;
#161 = AXIS2_PLACEMENT_3D ( 'NONE', #23, #24, #25 ) ;
#162 = CIRCLE ( 'NONE', #168, 25.00000000000000000 ) ;
#163 = AXIS2_PLACEMENT_3D ( 'NONE', #19, #20, #21 ) ;
#164 = VECTOR ( 'NONE', #26, 39.37007874015748100 ) ;
#165 = CIRCLE ( 'NONE', #161, 20.50000000000000000 ) ;
#166 = AXIS2_PLACEMENT_3D ( 'NONE', #16, #17, #18 ) ;
#167 = CIRCLE ( 'NONE', #166, 20.50000000000000000 ) ;
#168 = AXIS2_PLACEMENT_3D ( 'NONE', #27, #28, #29 ) ;
#169 = CIRCLE ( 'NONE', #174, 8.000000000000000000 ) ;
#170 = AXIS2_PLACEMENT_3D ( 'NONE', #30, #31, #32 ) ;
#171 = VECTOR ( 'NONE', #47, 39.37007874015748100 ) ;
#172 = AXIS2_PLACEMENT_3D ( 'NONE', #33, #34, #35 ) ;
#173 = CIRCLE ( 'NONE', #176, 20.50000000000000000 ) ;
#174 = AXIS2_PLACEMENT_3D ( 'NONE', #36, #37, #38 ) ;
#175 = CIRCLE ( 'NONE', #178, 8.000000000000000000 ) ;
#176 = AXIS2_PLACEMENT_3D ( 'NONE', #40, #41, #42 ) ;
#177 = VECTOR ( 'NONE', #64, 39.37007874015748100 ) ;
#178 = AXIS2_PLACEMENT_3D ( 'NONE', #44, #45, #46 ) ;
#179 = VECTOR ( 'NONE', #50, 39.37007874015748100 ) ;
#180 = CIRCLE ( 'NONE', #182, 20.50000000000000000 ) ;
#181 = CIRCLE ( 'NONE', #184, 25.00000000000000000 ) ;
#182 = AXIS2_PLACEMENT_3D ( 'NONE', #53, #54, #55 ) ;
#183 = VECTOR ( 'NONE', #62, 39.37007874015748100 ) ;
#184 = AXIS2_PLACEMENT_3D ( 'NONE', #58, #59, #60 ) ;
#185 = CIRCLE ( 'NONE', #187, 8.000000000000000000 ) ;
#186 = VECTOR ( 'NONE', #71, 39.37007874015748100 ) ;
#187 = AXIS2_PLACEMENT_3D ( 'NONE', #67, #68, #69 ) ;
#188 = STYLED_ITEM ( 'NONE', ( #134 ), #248 ) ;
#189 = AXIS2_PLACEMENT_3D ( 'NONE', #70, #72, #74 ) ;
#190 = AXIS2_PLACEMENT_3D ( 'NONE', #77, #73, #79 ) ;
#191 = AXIS2_PLACEMENT_3D ( 'NONE', #82, #78, #84 ) ;
#192 = AXIS2_PLACEMENT_3D ( 'NONE', #85, #83, #91 ) ;
#193 = AXIS2_PLACEMENT_3D ( 'NONE', #87, #90, #95 ) ;
#194 = AXIS2_PLACEMENT_3D ( 'NONE', #94, #100, #101 ) ;
#195 = AXIS2_PLACEMENT_3D ( 'NONE', #96, #99, #105 ) ;
#196 = AXIS2_PLACEMENT_3D ( 'NONE', #106, #104, #112 ) ;
#197 = AXIS2_PLACEMENT_3D ( 'NONE', #108, #111, #116 ) ;
#198 = AXIS2_PLACEMENT_3D ( 'NONE', #115, #119, #120 ) ;
#199 =( GEOMETRIC_REPRESENTATION_CONTEXT ( 3 ) GLOBAL_UNCERTAINTY_ASSIGNED_CONTEXT ( ( #267 ) ) GLOBAL_UNIT_ASSIGNED_CONTEXT ( ( #123, #124, #125 ) ) REPRESENTATION_CONTEXT ( 'NONE', 'WORKASPACE' ) );
#200 = COLOUR_RGB ( '',0.7921568627450980000, 0.8196078431372548800, 0.9333333333333333500 ) ;
#201 = PRESENTATION_LAYER_ASSIGNMENT (  '', '', ( #188 ) ) ;
#202 = MECHANICAL_DESIGN_GEOMETRIC_PRESENTATION_REPRESENTATION (  '', ( #188 ), #203 ) ;
#203 =( GEOMETRIC_REPRESENTATION_CONTEXT ( 3 ) GLOBAL_UNCERTAINTY_ASSIGNED_CONTEXT ( ( #266 ) ) GLOBAL_UNIT_ASSIGNED_CONTEXT ( ( #137, #138, #139 ) ) REPRESENTATION_CONTEXT ( 'NONE', 'WORKASPACE' ) );
#204 = AXIS2_PLACEMENT_3D ( 'NONE', #140, #141, #142 ) ;
#205 = PRODUCT_DEFINITION_FORMATION_WITH_SPECIFIED_SOURCE ( 'TUTTO', '', #144, .NOT_KNOWN. ) ;
#206 = SURFACE_STYLE_USAGE ( .BOTH. , #225 ) ;
#207 = FILL_AREA_STYLE ('',( #209 ) ) ;
#208 = CARTESIAN_POINT ( 'NONE',  ( 20.50000000000000000, 2.510525938252073700E-015, 0.0000000000000000000 ) ) ;
#209 = FILL_AREA_STYLE_COLOUR ( '', #155 ) ;
#210 = ORIENTED_EDGE ( 'NONE', *, *, #291, .T. ) ;
#211 = ORIENTED_EDGE ( 'NONE', *, *, #292, .T. ) ;
#212 = ORIENTED_EDGE ( 'NONE', *, *, #281, .F. ) ;
#213 = ORIENTED_EDGE ( 'NONE', *, *, #293, .F. ) ;
#214 = ORIENTED_EDGE ( 'NONE', *, *, #287, .T. ) ;
#215 = ORIENTED_EDGE ( 'NONE', *, *, #294, .T. ) ;
#216 = ORIENTED_EDGE ( 'NONE', *, *, #281, .T. ) ;
#217 = ORIENTED_EDGE ( 'NONE', *, *, #292, .F. ) ;
#218 = ORIENTED_EDGE ( 'NONE', *, *, #296, .T. ) ;
#219 = ORIENTED_EDGE ( 'NONE', *, *, #288, .F. ) ;
#220 = ORIENTED_EDGE ( 'NONE', *, *, #284, .T. ) ;
#221 = ORIENTED_EDGE ( 'NONE', *, *, #282, .T. ) ;
#222 = ORIENTED_EDGE ( 'NONE', *, *, #286, .T. ) ;
#223 = ORIENTED_EDGE ( 'NONE', *, *, #290, .T. ) ;
#224 = ORIENTED_EDGE ( 'NONE', *, *, #293, .T. ) ;
#225 = SURFACE_SIDE_STYLE ('',( #1 ) ) ;
#226 = ORIENTED_EDGE ( 'NONE', *, *, #290, .F. ) ;
#227 = ORIENTED_EDGE ( 'NONE', *, *, #285, .T. ) ;
#228 = ORIENTED_EDGE ( 'NONE', *, *, #282, .F. ) ;
#229 = ORIENTED_EDGE ( 'NONE', *, *, #289, .T. ) ;
#230 = ORIENTED_EDGE ( 'NONE', *, *, #280, .F. ) ;
#231 = ORIENTED_EDGE ( 'NONE', *, *, #288, .T. ) ;
#232 = ORIENTED_EDGE ( 'NONE', *, *, #297, .T. ) ;
#233 = ORIENTED_EDGE ( 'NONE', *, *, #294, .F. ) ;
#234 = ORIENTED_EDGE ( 'NONE', *, *, #296, .F. ) ;
#235 = ORIENTED_EDGE ( 'NONE', *, *, #297, .F. ) ;
#236 = ORIENTED_EDGE ( 'NONE', *, *, #280, .T. ) ;
#237 = ORIENTED_EDGE ( 'NONE', *, *, #283, .T. ) ;
#238 = ORIENTED_EDGE ( 'NONE', *, *, #286, .F. ) ;
#239 = ORIENTED_EDGE ( 'NONE', *, *, #283, .F. ) ;
#240 = ORIENTED_EDGE ( 'NONE', *, *, #284, .F. ) ;
#241 = ORIENTED_EDGE ( 'NONE', *, *, #285, .F. ) ;
#242 = ORIENTED_EDGE ( 'NONE', *, *, #287, .F. ) ;
#243 = ORIENTED_EDGE ( 'NONE', *, *, #291, .F. ) ;
#244 = ORIENTED_EDGE ( 'NONE', *, *, #289, .F. ) ;
#245 = ORIENTED_EDGE ( 'NONE', *, *, #295, .T. ) ;
#246 = ORIENTED_EDGE ( 'NONE', *, *, #295, .F. ) ;
#247 = EDGE_LOOP ( 'NONE', ( #241, #215, #218, #226 ) ) ;
#248 = ADVANCED_BREP_SHAPE_REPRESENTATION ( '084.403.002', ( #264, #204 ), #199 ) ;
#249 = EDGE_LOOP ( 'NONE', ( #244, #234 ) ) ;
#250 = EDGE_LOOP ( 'NONE', ( #220, #224 ) ) ;
#251 = EDGE_LOOP ( 'NONE', ( #246, #222, #210, #213 ) ) ;
#252 = EDGE_LOOP ( 'NONE', ( #214, #227 ) ) ;
#253 = EDGE_LOOP ( 'NONE', ( #216, #245, #240, #243 ) ) ;
#254 = EDGE_LOOP ( 'NONE', ( #219, #228 ) ) ;
#255 = EDGE_LOOP ( 'NONE', ( #235, #230, #237, #231 ) ) ;
#256 = CARTESIAN_POINT ( 'NONE',  ( 8.000000000000000000, 0.0000000000000000000, 0.0000000000000000000 ) ) ;
#257 = EDGE_LOOP ( 'NONE', ( #233, #242, #223, #229 ) ) ;
#258 = EDGE_LOOP ( 'NONE', ( #236, #211 ) ) ;
#259 = EDGE_LOOP ( 'NONE', ( #217, #232, #221, #239 ) ) ;
#260 = EDGE_LOOP ( 'NONE', ( #212, #238 ) ) ;
#261 = APPLICATION_CONTEXT ( 'automotive_design' ) ;
#262 = APPLICATION_CONTEXT ( 'automotive_design' ) ;
#263 = PRODUCT_DEFINITION_CONTEXT ( 'detailed design', #262, 'design' ) ;
#264 = MANIFOLD_SOLID_BREP ( 'Taglio-Estrusione1', #156 ) ;
#265 = PRODUCT_DEFINITION_SHAPE ( 'NONE', 'NONE',  #308 ) ;
#266 = UNCERTAINTY_MEASURE_WITH_UNIT (LENGTH_MEASURE( 1.000000000000000100E-005 ), #137, 'distance_accuracy_value', 'NONE');
#267 = UNCERTAINTY_MEASURE_WITH_UNIT (LENGTH_MEASURE( 1.000000000000000100E-005 ), #123, 'distance_accuracy_value', 'NONE');
#268 = UNCERTAINTY_MEASURE_WITH_UNIT (LENGTH_MEASURE( 1.000000000000000100E-005 ), #5, 'distance_accuracy_value', 'NONE');
#269 = VERTEX_POINT ( 'NONE', #256 ) ;
#270 = VERTEX_POINT ( 'NONE', #9 ) ;
#271 = CARTESIAN_POINT ( 'NONE',  ( 25.00000000000000000, 0.0000000000000000000, -2.700000000000000200 ) ) ;
#272 = VERTEX_POINT ( 'NONE', #271 ) ;
#273 = VERTEX_POINT ( 'NONE', #10 ) ;
#274 = VERTEX_POINT ( 'NONE', #208 ) ;
#275 = VERTEX_POINT ( 'NONE', #11 ) ;
#276 = VERTEX_POINT ( 'NONE', #12 ) ;
#277 = VERTEX_POINT ( 'NONE', #8 ) ;
#278 = VERTEX_POINT ( 'NONE', #13 ) ;
#279 = VERTEX_POINT ( 'NONE', #14 ) ;
#280 = EDGE_CURVE ( 'NONE', #149, #273, #167, .T. ) ;
#281 = EDGE_CURVE ( 'NONE', #272, #148, #160, .T. ) ;
#282 = EDGE_CURVE ( 'NONE', #274, #277, #165, .T. ) ;
#283 = EDGE_CURVE ( 'NONE', #149, #277, #22, .T. ) ;
#284 = EDGE_CURVE ( 'NONE', #279, #270, #162, .T. ) ;
#285 = EDGE_CURVE ( 'NONE', #278, #269, #159, .T. ) ;
#286 = EDGE_CURVE ( 'NONE', #148, #272, #158, .T. ) ;
#287 = EDGE_CURVE ( 'NONE', #269, #278, #169, .T. ) ;
#288 = EDGE_CURVE ( 'NONE', #277, #274, #173, .T. ) ;
#289 = EDGE_CURVE ( 'NONE', #275, #276, #175, .T. ) ;
#290 = EDGE_CURVE ( 'NONE', #269, #275, #43, .T. ) ;
#291 = EDGE_CURVE ( 'NONE', #272, #279, #48, .T. ) ;
#292 = EDGE_CURVE ( 'NONE', #273, #149, #180, .T. ) ;
#293 = EDGE_CURVE ( 'NONE', #270, #279, #181, .T. ) ;
#294 = EDGE_CURVE ( 'NONE', #278, #276, #51, .T. ) ;
#295 = EDGE_CURVE ( 'NONE', #148, #270, #57, .T. ) ;
#296 = EDGE_CURVE ( 'NONE', #276, #275, #185, .T. ) ;
#297 = EDGE_CURVE ( 'NONE', #273, #274, #61, .T. ) ;
#298 = ADVANCED_FACE ( 'NONE', ( #65 ), #66, .F. ) ;
#299 = ADVANCED_FACE ( 'NONE', ( #76 ), #75, .T. ) ;
#300 = ADVANCED_FACE ( 'NONE', ( #81 ), #80, .T. ) ;
#301 = ADVANCED_FACE ( 'NONE', ( #86, #88 ), #89, .T. ) ;
#302 = ADVANCED_FACE ( 'NONE', ( #93 ), #92, .T. ) ;
#303 = ADVANCED_FACE ( 'NONE', ( #97 ), #98, .F. ) ;
#304 = ADVANCED_FACE ( 'NONE', ( #103 ), #102, .T. ) ;
#305 = ADVANCED_FACE ( 'NONE', ( #107, #109 ), #110, .T. ) ;
#306 = ADVANCED_FACE ( 'NONE', ( #114 ), #113, .F. ) ;
#307 = ADVANCED_FACE ( 'NONE', ( #117 ), #118, .T. ) ;
#308 = PRODUCT_DEFINITION ( 'NON CONOSCIUTO', '', #205, #263 ) ;
#309 = PRODUCT_RELATED_PRODUCT_CATEGORY ( 'part', '', ( #144 ) ) ;
ENDSEC;
END-ISO-10303-21;
