ISO-10303-21;
HEADER;
FILE_DESCRIPTION (( 'STEP AP214' ),
    '1' );
FILE_NAME ('084.403.001.STEP',
    '2014-03-12T09:50:47',
    ( '' ),
    ( '' ),
    'SwSTEP 2.0',
    'SolidWorks 2011',
    '' );
FILE_SCHEMA (( 'AUTOMOTIVE_DESIGN' ));
ENDSEC;

DATA;
#1 = DIRECTION ( 'NONE',  ( 1.000000000000000000, 0.0000000000000000000, 0.0000000000000000000 ) ) ;
#2 = FACE_OUTER_BOUND ( 'NONE', #58, .T. ) ;
#3 = ORIENTED_EDGE ( 'NONE', *, *, #304, .F. ) ;
#4 = ORIENTED_EDGE ( 'NONE', *, *, #293, .T. ) ;
#5 =( NAMED_UNIT ( * ) PLANE_ANGLE_UNIT ( ) SI_UNIT ( $, .RADIAN. ) );
#6 = EDGE_LOOP ( 'NONE', ( #44, #99 ) ) ;
#7 = ORIENTED_EDGE ( 'NONE', *, *, #299, .F. ) ;
#8 = EDGE_LOOP ( 'NONE', ( #10, #73, #89, #26 ) ) ;
#9 = CYLINDRICAL_SURFACE ( 'NONE', #238, 8.000000000000000000 ) ;
#10 = ORIENTED_EDGE ( 'NONE', *, *, #296, .F. ) ;
#11 = EDGE_LOOP ( 'NONE', ( #91, #22 ) ) ;
#12 = ORIENTED_EDGE ( 'NONE', *, *, #306, .F. ) ;
#13 = ORIENTED_EDGE ( 'NONE', *, *, #299, .T. ) ;
#14 = PLANE ( 'NONE',  #239 ) ;
#15 = EDGE_LOOP ( 'NONE', ( #4, #52 ) ) ;
#16 = ORIENTED_EDGE ( 'NONE', *, *, #298, .T. ) ;
#17 = EDGE_LOOP ( 'NONE', ( #70, #67 ) ) ;
#18 = DIRECTION ( 'NONE',  ( -0.0000000000000000000, -0.0000000000000000000, 1.000000000000000000 ) ) ;
#19 = ORIENTED_EDGE ( 'NONE', *, *, #304, .T. ) ;
#20 = DIRECTION ( 'NONE',  ( 1.000000000000000000, 0.0000000000000000000, 0.0000000000000000000 ) ) ;
#21 = FACE_OUTER_BOUND ( 'NONE', #36, .T. ) ;
#22 = ORIENTED_EDGE ( 'NONE', *, *, #303, .F. ) ;
#23 =( LENGTH_UNIT ( ) NAMED_UNIT ( * ) SI_UNIT ( $, .METRE. ) );
#24 = ORIENTED_EDGE ( 'NONE', *, *, #293, .F. ) ;
#25 = FACE_OUTER_BOUND ( 'NONE', #8, .T. ) ;
#26 = ORIENTED_EDGE ( 'NONE', *, *, #294, .F. ) ;
#27 = SURFACE_STYLE_FILL_AREA ( #97 ) ;
#28 = PRESENTATION_STYLE_ASSIGNMENT (( #98 ) ) ;
#29 = LENGTH_MEASURE_WITH_UNIT ( LENGTH_MEASURE( 0.02539999999999999900 ), #23 );
#30 = CARTESIAN_POINT ( 'NONE',  ( 8.000000000000000000, 0.0000000000000000000, 2.549999999999999800 ) ) ;
#31 = ORIENTED_EDGE ( 'NONE', *, *, #301, .F. ) ;
#32 = ORIENTED_EDGE ( 'NONE', *, *, #305, .F. ) ;
#33 = EDGE_LOOP ( 'NONE', ( #49, #7 ) ) ;
#34 = SURFACE_SIDE_STYLE ('',( #27 ) ) ;
#35 = ORIENTED_EDGE ( 'NONE', *, *, #307, .T. ) ;
#36 = EDGE_LOOP ( 'NONE', ( #75, #72, #71, #3 ) ) ;
#37 = DIRECTION ( 'NONE',  ( 0.0000000000000000000, 0.0000000000000000000, 1.000000000000000000 ) ) ;
#38 = CYLINDRICAL_SURFACE ( 'NONE', #240, 8.000000000000000000 ) ;
#39 = CARTESIAN_POINT ( 'NONE',  ( -20.00000000000000000, 2.449293598294706500E-015, -2.700000000000000200 ) ) ;
#40 = EDGE_LOOP ( 'NONE', ( #66, #95, #64, #101 ) ) ;
#41 = EDGE_LOOP ( 'NONE', ( #69, #55, #53, #108 ) ) ;
#42 = DIRECTION ( 'NONE',  ( 1.000000000000000000, 0.0000000000000000000, 0.0000000000000000000 ) ) ;
#43 = CYLINDRICAL_SURFACE ( 'NONE', #237, 20.00000000000000000 ) ;
#44 = ORIENTED_EDGE ( 'NONE', *, *, #289, .F. ) ;
#45 = CARTESIAN_POINT ( 'NONE',  ( -20.00000000000000000, 2.449293598294706500E-015, 0.0000000000000000000 ) ) ;
#46 = CARTESIAN_POINT ( 'NONE',  ( 20.00000000000000000, 0.0000000000000000000, 0.0000000000000000000 ) ) ;
#47 = DIRECTION ( 'NONE',  ( -0.0000000000000000000, -0.0000000000000000000, 1.000000000000000000 ) ) ;
#48 = FACE_OUTER_BOUND ( 'NONE', #6, .T. ) ;
#49 = ORIENTED_EDGE ( 'NONE', *, *, #295, .F. ) ;
#50 = CARTESIAN_POINT ( 'NONE',  ( -15.00000000000000000, 0.0000000000000000000, 0.0000000000000000000 ) ) ;
#51 = DIRECTION ( 'NONE',  ( 1.000000000000000000, 0.0000000000000000000, -0.0000000000000000000 ) ) ;
#52 = ORIENTED_EDGE ( 'NONE', *, *, #302, .T. ) ;
#53 = ORIENTED_EDGE ( 'NONE', *, *, #290, .F. ) ;
#54 = CARTESIAN_POINT ( 'NONE',  ( -15.00000000000000000, 0.0000000000000000000, 2.549999999999999800 ) ) ;
#55 = ORIENTED_EDGE ( 'NONE', *, *, #296, .T. ) ;
#56 = EDGE_LOOP ( 'NONE', ( #32, #35, #13, #31 ) ) ;
#57 = EDGE_LOOP ( 'NONE', ( #68, #100 ) ) ;
#58 = EDGE_LOOP ( 'NONE', ( #12, #24, #19, #16 ) ) ;
#59 =( NAMED_UNIT ( * ) SI_UNIT ( $, .STERADIAN. ) SOLID_ANGLE_UNIT ( ) );
#60 =( CONVERSION_BASED_UNIT ( 'INCH', #29 ) LENGTH_UNIT ( ) NAMED_UNIT ( #224 ) );
#61 = CARTESIAN_POINT ( 'NONE',  ( 0.0000000000000000000, 0.0000000000000000000, -2.700000000000000200 ) ) ;
#62 = DIRECTION ( 'NONE',  ( 1.000000000000000000, 0.0000000000000000000, -0.0000000000000000000 ) ) ;
#63 = FACE_OUTER_BOUND ( 'NONE', #15, .T. ) ;
#64 = ORIENTED_EDGE ( 'NONE', *, *, #301, .T. ) ;
#65 = FILL_AREA_STYLE_COLOUR ( '', #226 ) ;
#66 = ORIENTED_EDGE ( 'NONE', *, *, #307, .F. ) ;
#67 = ORIENTED_EDGE ( 'NONE', *, *, #305, .T. ) ;
#68 = ORIENTED_EDGE ( 'NONE', *, *, #290, .T. ) ;
#69 = ORIENTED_EDGE ( 'NONE', *, *, #289, .T. ) ;
#70 = ORIENTED_EDGE ( 'NONE', *, *, #297, .T. ) ;
#71 = ORIENTED_EDGE ( 'NONE', *, *, #303, .T. ) ;
#72 = ORIENTED_EDGE ( 'NONE', *, *, #306, .T. ) ;
#73 = ORIENTED_EDGE ( 'NONE', *, *, #292, .T. ) ;
#74 = VERTEX_POINT ( 'NONE', #46 ) ;
#75 = ORIENTED_EDGE ( 'NONE', *, *, #302, .F. ) ;
#76 = VERTEX_POINT ( 'NONE', #105 ) ;
#77 = VERTEX_POINT ( 'NONE', #92 ) ;
#78 = VERTEX_POINT ( 'NONE', #45 ) ;
#79 = VERTEX_POINT ( 'NONE', #50 ) ;
#80 = VERTEX_POINT ( 'NONE', #54 ) ;
#81 = VERTEX_POINT ( 'NONE', #94 ) ;
#82 = VERTEX_POINT ( 'NONE', #93 ) ;
#83 = VERTEX_POINT ( 'NONE', #39 ) ;
#84 = VERTEX_POINT ( 'NONE', #30 ) ;
#85 = VERTEX_POINT ( 'NONE', #88 ) ;
#86 = VERTEX_POINT ( 'NONE', #96 ) ;
#87 = CARTESIAN_POINT ( 'NONE',  ( 0.0000000000000000000, 0.0000000000000000000, -2.700000000000000200 ) ) ;
#88 = CARTESIAN_POINT ( 'NONE',  ( 20.00000000000000000, 0.0000000000000000000, -2.700000000000000200 ) ) ;
#89 = ORIENTED_EDGE ( 'NONE', *, *, #300, .T. ) ;
#90 = DIRECTION ( 'NONE',  ( 0.0000000000000000000, 0.0000000000000000000, 1.000000000000000000 ) ) ;
#91 = ORIENTED_EDGE ( 'NONE', *, *, #298, .F. ) ;
#92 = CARTESIAN_POINT ( 'NONE',  ( -8.000000000000000000, 9.797174393178825700E-016, 0.0000000000000000000 ) ) ;
#93 = CARTESIAN_POINT ( 'NONE',  ( 15.00000000000000000, 1.836970198721030000E-015, 0.0000000000000000000 ) ) ;
#94 = CARTESIAN_POINT ( 'NONE',  ( -8.000000000000000000, 9.797174393178825700E-016, 2.549999999999999800 ) ) ;
#95 = ORIENTED_EDGE ( 'NONE', *, *, #297, .F. ) ;
#96 = CARTESIAN_POINT ( 'NONE',  ( 15.00000000000000000, 1.836970198721030000E-015, 2.549999999999999800 ) ) ;
#97 = FILL_AREA_STYLE ('',( #65 ) ) ;
#98 = SURFACE_STYLE_USAGE ( .BOTH. , #34 ) ;
#99 = ORIENTED_EDGE ( 'NONE', *, *, #292, .F. ) ;
#100 = ORIENTED_EDGE ( 'NONE', *, *, #294, .T. ) ;
#101 = ORIENTED_EDGE ( 'NONE', *, *, #295, .T. ) ;
#102 = PLANE ( 'NONE',  #236 ) ;
#103 = CARTESIAN_POINT ( 'NONE',  ( 0.0000000000000000000, 0.0000000000000000000, 0.0000000000000000000 ) ) ;
#104 = CARTESIAN_POINT ( 'NONE',  ( 0.0000000000000000000, 0.0000000000000000000, 0.0000000000000000000 ) ) ;
#105 = CARTESIAN_POINT ( 'NONE',  ( 8.000000000000000000, 0.0000000000000000000, 0.0000000000000000000 ) ) ;
#106 = DIRECTION ( 'NONE',  ( 0.0000000000000000000, 0.0000000000000000000, 1.000000000000000000 ) ) ;
#107 = CARTESIAN_POINT ( 'NONE',  ( 0.0000000000000000000, 0.0000000000000000000, 0.0000000000000000000 ) ) ;
#108 = ORIENTED_EDGE ( 'NONE', *, *, #300, .F. ) ;
#109 = ADVANCED_BREP_SHAPE_REPRESENTATION ( '084.403.001', ( #110, #278 ), #274 ) ;
#110 = MANIFOLD_SOLID_BREP ( 'Taglio-Estrusione1', #231 ) ;
#111 = PRODUCT_DEFINITION_SHAPE ( 'NONE', 'NONE',  #308 ) ;
#112 = PRODUCT_DEFINITION_CONTEXT ( 'detailed design', #220, 'design' ) ;
#113 = UNCERTAINTY_MEASURE_WITH_UNIT (LENGTH_MEASURE( 1.000000000000000100E-005 ), #199, 'distance_accuracy_value', 'NONE');
#114 = UNCERTAINTY_MEASURE_WITH_UNIT (LENGTH_MEASURE( 1.000000000000000100E-005 ), #213, 'distance_accuracy_value', 'NONE');
#115 = UNCERTAINTY_MEASURE_WITH_UNIT (LENGTH_MEASURE( 1.000000000000000100E-005 ), #60, 'distance_accuracy_value', 'NONE');
#116 = CYLINDRICAL_SURFACE ( 'NONE', #241, 15.00000000000000000 ) ;
#117 = FACE_OUTER_BOUND ( 'NONE', #40, .T. ) ;
#118 = CARTESIAN_POINT ( 'NONE',  ( 0.0000000000000000000, 0.0000000000000000000, 2.549999999999999800 ) ) ;
#119 = DIRECTION ( 'NONE',  ( 0.0000000000000000000, 0.0000000000000000000, 1.000000000000000000 ) ) ;
#120 = DIRECTION ( 'NONE',  ( -0.0000000000000000000, -0.0000000000000000000, -1.000000000000000000 ) ) ;
#121 = DIRECTION ( 'NONE',  ( -1.000000000000000000, 0.0000000000000000000, 0.0000000000000000000 ) ) ;
#122 = CYLINDRICAL_SURFACE ( 'NONE', #242, 20.00000000000000000 ) ;
#123 = FACE_OUTER_BOUND ( 'NONE', #41, .T. ) ;
#124 = CARTESIAN_POINT ( 'NONE',  ( 0.0000000000000000000, 0.0000000000000000000, -2.700000000000000200 ) ) ;
#125 = DIRECTION ( 'NONE',  ( 0.0000000000000000000, 0.0000000000000000000, 1.000000000000000000 ) ) ;
#126 = DIRECTION ( 'NONE',  ( 1.000000000000000000, 0.0000000000000000000, 0.0000000000000000000 ) ) ;
#127 = CARTESIAN_POINT ( 'NONE',  ( 0.0000000000000000000, 0.0000000000000000000, 0.0000000000000000000 ) ) ;
#128 = FACE_OUTER_BOUND ( 'NONE', #57, .T. ) ;
#129 = CARTESIAN_POINT ( 'NONE',  ( 0.0000000000000000000, 0.0000000000000000000, 2.549999999999999800 ) ) ;
#130 = FACE_BOUND ( 'NONE', #33, .T. ) ;
#131 = PLANE ( 'NONE',  #243 ) ;
#132 = DIRECTION ( 'NONE',  ( -0.0000000000000000000, -0.0000000000000000000, -1.000000000000000000 ) ) ;
#133 = DIRECTION ( 'NONE',  ( 1.000000000000000000, 0.0000000000000000000, -0.0000000000000000000 ) ) ;
#134 = CYLINDRICAL_SURFACE ( 'NONE', #244, 15.00000000000000000 ) ;
#135 = FACE_OUTER_BOUND ( 'NONE', #56, .T. ) ;
#136 = DIRECTION ( 'NONE',  ( -1.000000000000000000, 0.0000000000000000000, 0.0000000000000000000 ) ) ;
#137 = FACE_BOUND ( 'NONE', #11, .T. ) ;
#138 = FACE_OUTER_BOUND ( 'NONE', #17, .T. ) ;
#139 = PLANE ( 'NONE',  #249 ) ;
#140 = CARTESIAN_POINT ( 'NONE',  ( 0.0000000000000000000, 0.0000000000000000000, -2.700000000000000200 ) ) ;
#141 = DIRECTION ( 'NONE',  ( 0.0000000000000000000, 0.0000000000000000000, 1.000000000000000000 ) ) ;
#142 = DIRECTION ( 'NONE',  ( 1.000000000000000000, 0.0000000000000000000, 0.0000000000000000000 ) ) ;
#143 = CARTESIAN_POINT ( 'NONE',  ( 0.0000000000000000000, 0.0000000000000000000, 2.549999999999999800 ) ) ;
#144 = CARTESIAN_POINT ( 'NONE',  ( 0.0000000000000000000, 0.0000000000000000000, 0.0000000000000000000 ) ) ;
#145 = DIRECTION ( 'NONE',  ( 0.0000000000000000000, 0.0000000000000000000, 1.000000000000000000 ) ) ;
#146 = DIRECTION ( 'NONE',  ( 1.000000000000000000, 0.0000000000000000000, 0.0000000000000000000 ) ) ;
#147 = DIRECTION ( 'NONE',  ( 0.0000000000000000000, 0.0000000000000000000, 1.000000000000000000 ) ) ;
#148 = DIRECTION ( 'NONE',  ( 1.000000000000000000, 0.0000000000000000000, -0.0000000000000000000 ) ) ;
#149 = CARTESIAN_POINT ( 'NONE',  ( 0.0000000000000000000, 0.0000000000000000000, -2.700000000000000200 ) ) ;
#150 = DIRECTION ( 'NONE',  ( 0.0000000000000000000, 0.0000000000000000000, 1.000000000000000000 ) ) ;
#151 = DIRECTION ( 'NONE',  ( 1.000000000000000000, 0.0000000000000000000, 0.0000000000000000000 ) ) ;
#152 = CARTESIAN_POINT ( 'NONE',  ( 20.00000000000000000, 0.0000000000000000000, -2.700000000000000200 ) ) ;
#153 = CARTESIAN_POINT ( 'NONE',  ( 0.0000000000000000000, 0.0000000000000000000, 0.0000000000000000000 ) ) ;
#154 = DIRECTION ( 'NONE',  ( 0.0000000000000000000, 0.0000000000000000000, 1.000000000000000000 ) ) ;
#155 = DIRECTION ( 'NONE',  ( 1.000000000000000000, 0.0000000000000000000, 0.0000000000000000000 ) ) ;
#156 = CARTESIAN_POINT ( 'NONE',  ( -20.00000000000000000, 2.449293598294706500E-015, -2.700000000000000200 ) ) ;
#157 = CARTESIAN_POINT ( 'NONE',  ( 0.0000000000000000000, 0.0000000000000000000, 0.0000000000000000000 ) ) ;
#158 = DIRECTION ( 'NONE',  ( 0.0000000000000000000, 0.0000000000000000000, 1.000000000000000000 ) ) ;
#159 = DIRECTION ( 'NONE',  ( 1.000000000000000000, 0.0000000000000000000, 0.0000000000000000000 ) ) ;
#160 = LINE ( 'NONE', #156, #250 ) ;
#161 = CARTESIAN_POINT ( 'NONE',  ( 0.0000000000000000000, 0.0000000000000000000, 0.0000000000000000000 ) ) ;
#162 = DIRECTION ( 'NONE',  ( 0.0000000000000000000, 0.0000000000000000000, 1.000000000000000000 ) ) ;
#163 = DIRECTION ( 'NONE',  ( 1.000000000000000000, 0.0000000000000000000, 0.0000000000000000000 ) ) ;
#164 = DIRECTION ( 'NONE',  ( 0.0000000000000000000, 0.0000000000000000000, 1.000000000000000000 ) ) ;
#165 = CARTESIAN_POINT ( 'NONE',  ( 0.0000000000000000000, 0.0000000000000000000, 2.549999999999999800 ) ) ;
#166 = DIRECTION ( 'NONE',  ( 0.0000000000000000000, 0.0000000000000000000, 1.000000000000000000 ) ) ;
#167 = DIRECTION ( 'NONE',  ( 1.000000000000000000, 0.0000000000000000000, 0.0000000000000000000 ) ) ;
#168 = CARTESIAN_POINT ( 'NONE',  ( 0.0000000000000000000, 0.0000000000000000000, 2.549999999999999800 ) ) ;
#169 = DIRECTION ( 'NONE',  ( 0.0000000000000000000, 0.0000000000000000000, 1.000000000000000000 ) ) ;
#170 = DIRECTION ( 'NONE',  ( 1.000000000000000000, 0.0000000000000000000, 0.0000000000000000000 ) ) ;
#171 = LINE ( 'NONE', #184, #269 ) ;
#172 = LINE ( 'NONE', #152, #259 ) ;
#173 = CARTESIAN_POINT ( 'NONE',  ( 0.0000000000000000000, 0.0000000000000000000, 0.0000000000000000000 ) ) ;
#174 = DIRECTION ( 'NONE',  ( 0.0000000000000000000, 0.0000000000000000000, 1.000000000000000000 ) ) ;
#175 = DIRECTION ( 'NONE',  ( 1.000000000000000000, 0.0000000000000000000, 0.0000000000000000000 ) ) ;
#176 = DIRECTION ( 'NONE',  ( 0.0000000000000000000, 0.0000000000000000000, 1.000000000000000000 ) ) ;
#177 = LINE ( 'NONE', #178, #263 ) ;
#178 = CARTESIAN_POINT ( 'NONE',  ( -15.00000000000000000, 0.0000000000000000000, 2.549999999999999800 ) ) ;
#179 = DIRECTION ( 'NONE',  ( -0.0000000000000000000, -0.0000000000000000000, -1.000000000000000000 ) ) ;
#180 = CARTESIAN_POINT ( 'NONE',  ( 8.000000000000000000, 0.0000000000000000000, 0.0000000000000000000 ) ) ;
#181 = CARTESIAN_POINT ( 'NONE',  ( 0.0000000000000000000, 0.0000000000000000000, 0.0000000000000000000 ) ) ;
#182 = DIRECTION ( 'NONE',  ( 0.0000000000000000000, 0.0000000000000000000, 1.000000000000000000 ) ) ;
#183 = DIRECTION ( 'NONE',  ( 1.000000000000000000, 0.0000000000000000000, 0.0000000000000000000 ) ) ;
#184 = CARTESIAN_POINT ( 'NONE',  ( -8.000000000000000000, 9.797174393178825700E-016, 0.0000000000000000000 ) ) ;
#185 = LINE ( 'NONE', #180, #261 ) ;
#186 = CARTESIAN_POINT ( 'NONE',  ( 0.0000000000000000000, 0.0000000000000000000, 2.549999999999999800 ) ) ;
#187 = DIRECTION ( 'NONE',  ( 0.0000000000000000000, 0.0000000000000000000, 1.000000000000000000 ) ) ;
#188 = DIRECTION ( 'NONE',  ( 1.000000000000000000, 0.0000000000000000000, 0.0000000000000000000 ) ) ;
#189 = DIRECTION ( 'NONE',  ( -0.0000000000000000000, -0.0000000000000000000, 1.000000000000000000 ) ) ;
#190 = CARTESIAN_POINT ( 'NONE',  ( 0.0000000000000000000, 0.0000000000000000000, 2.549999999999999800 ) ) ;
#191 = DIRECTION ( 'NONE',  ( 0.0000000000000000000, 0.0000000000000000000, 1.000000000000000000 ) ) ;
#192 = DIRECTION ( 'NONE',  ( 1.000000000000000000, 0.0000000000000000000, 0.0000000000000000000 ) ) ;
#193 = DIRECTION ( 'NONE',  ( -0.0000000000000000000, -0.0000000000000000000, 1.000000000000000000 ) ) ;
#194 = LINE ( 'NONE', #195, #271 ) ;
#195 = CARTESIAN_POINT ( 'NONE',  ( 15.00000000000000000, 1.836970198721030000E-015, 2.549999999999999800 ) ) ;
#196 = DIRECTION ( 'NONE',  ( -0.0000000000000000000, -0.0000000000000000000, -1.000000000000000000 ) ) ;
#197 =( LENGTH_UNIT ( ) NAMED_UNIT ( * ) SI_UNIT ( $, .METRE. ) );
#198 = LENGTH_MEASURE_WITH_UNIT ( LENGTH_MEASURE( 0.02539999999999999900 ), #197 );
#199 =( CONVERSION_BASED_UNIT ( 'INCH', #198 ) LENGTH_UNIT ( ) NAMED_UNIT ( #223 ) );
#200 =( NAMED_UNIT ( * ) PLANE_ANGLE_UNIT ( ) SI_UNIT ( $, .RADIAN. ) );
#201 =( NAMED_UNIT ( * ) SI_UNIT ( $, .STERADIAN. ) SOLID_ANGLE_UNIT ( ) );
#202 = PRODUCT_CONTEXT ( 'NONE', #221, 'mechanical' ) ;
#203 = SHAPE_DEFINITION_REPRESENTATION ( #111, #109 ) ;
#204 = APPLICATION_PROTOCOL_DEFINITION ( 'draft international standard', 'automotive_design', 1998, #221 ) ;
#205 = FILL_AREA_STYLE_COLOUR ( '', #272 ) ;
#206 = FILL_AREA_STYLE ('',( #205 ) ) ;
#207 = SURFACE_STYLE_FILL_AREA ( #206 ) ;
#208 = SURFACE_SIDE_STYLE ('',( #207 ) ) ;
#209 = SURFACE_STYLE_USAGE ( .BOTH. , #208 ) ;
#210 = PRESENTATION_STYLE_ASSIGNMENT (( #209 ) ) ;
#211 =( LENGTH_UNIT ( ) NAMED_UNIT ( * ) SI_UNIT ( $, .METRE. ) );
#212 = LENGTH_MEASURE_WITH_UNIT ( LENGTH_MEASURE( 0.02539999999999999900 ), #211 );
#213 =( CONVERSION_BASED_UNIT ( 'INCH', #212 ) LENGTH_UNIT ( ) NAMED_UNIT ( #225 ) );
#214 =( NAMED_UNIT ( * ) PLANE_ANGLE_UNIT ( ) SI_UNIT ( $, .RADIAN. ) );
#215 =( NAMED_UNIT ( * ) SI_UNIT ( $, .STERADIAN. ) SOLID_ANGLE_UNIT ( ) );
#216 = CARTESIAN_POINT ( 'NONE',  ( 0.0000000000000000000, 0.0000000000000000000, 0.0000000000000000000 ) ) ;
#217 = DIRECTION ( 'NONE',  ( 0.0000000000000000000, 0.0000000000000000000, 1.000000000000000000 ) ) ;
#218 = DIRECTION ( 'NONE',  ( 1.000000000000000000, 0.0000000000000000000, 0.0000000000000000000 ) ) ;
#219 = APPLICATION_PROTOCOL_DEFINITION ( 'draft international standard', 'automotive_design', 1998, #220 ) ;
#220 = APPLICATION_CONTEXT ( 'automotive_design' ) ;
#221 = APPLICATION_CONTEXT ( 'automotive_design' ) ;
#222 = PRODUCT ( '084.403.001', '084.403.001', '', ( #202 ) ) ;
#223 = DIMENSIONAL_EXPONENTS ( 1.000000000000000000, 0.0000000000000000000, 0.0000000000000000000, 0.0000000000000000000, 0.0000000000000000000, 0.0000000000000000000, 0.0000000000000000000 ) ;
#224 = DIMENSIONAL_EXPONENTS ( 1.000000000000000000, 0.0000000000000000000, 0.0000000000000000000, 0.0000000000000000000, 0.0000000000000000000, 0.0000000000000000000, 0.0000000000000000000 ) ;
#225 = DIMENSIONAL_EXPONENTS ( 1.000000000000000000, 0.0000000000000000000, 0.0000000000000000000, 0.0000000000000000000, 0.0000000000000000000, 0.0000000000000000000, 0.0000000000000000000 ) ;
#226 = COLOUR_RGB ( '',0.7921568627450980000, 0.8196078431372548800, 0.9333333333333333500 ) ;
#227 =( GEOMETRIC_REPRESENTATION_CONTEXT ( 3 ) GLOBAL_UNCERTAINTY_ASSIGNED_CONTEXT ( ( #115 ) ) GLOBAL_UNIT_ASSIGNED_CONTEXT ( ( #60, #5, #59 ) ) REPRESENTATION_CONTEXT ( 'NONE', 'WORKASPACE' ) );
#228 = MECHANICAL_DESIGN_GEOMETRIC_PRESENTATION_REPRESENTATION (  '', ( #233 ), #227 ) ;
#229 = CIRCLE ( 'NONE', #235, 20.00000000000000000 ) ;
#230 = CIRCLE ( 'NONE', #245, 20.00000000000000000 ) ;
#231 = CLOSED_SHELL ( 'NONE', ( #282, #288, #286, #287, #281, #283, #285, #291, #284, #280 ) ) ;
#232 = PRESENTATION_LAYER_ASSIGNMENT (  '', '', ( #233 ) ) ;
#233 = STYLED_ITEM ( 'NONE', ( #28 ), #110 ) ;
#234 = CIRCLE ( 'NONE', #246, 20.00000000000000000 ) ;
#235 = AXIS2_PLACEMENT_3D ( 'NONE', #140, #141, #142 ) ;
#236 = AXIS2_PLACEMENT_3D ( 'NONE', #103, #37, #51 ) ;
#237 = AXIS2_PLACEMENT_3D ( 'NONE', #87, #106, #20 ) ;
#238 = AXIS2_PLACEMENT_3D ( 'NONE', #104, #18, #42 ) ;
#239 = AXIS2_PLACEMENT_3D ( 'NONE', #61, #90, #62 ) ;
#240 = AXIS2_PLACEMENT_3D ( 'NONE', #107, #47, #1 ) ;
#241 = AXIS2_PLACEMENT_3D ( 'NONE', #118, #120, #121 ) ;
#242 = AXIS2_PLACEMENT_3D ( 'NONE', #124, #119, #126 ) ;
#243 = AXIS2_PLACEMENT_3D ( 'NONE', #127, #125, #133 ) ;
#244 = AXIS2_PLACEMENT_3D ( 'NONE', #129, #132, #136 ) ;
#245 = AXIS2_PLACEMENT_3D ( 'NONE', #149, #150, #151 ) ;
#246 = AXIS2_PLACEMENT_3D ( 'NONE', #144, #145, #146 ) ;
#247 = CIRCLE ( 'NONE', #251, 8.000000000000000000 ) ;
#248 = CIRCLE ( 'NONE', #253, 20.00000000000000000 ) ;
#249 = AXIS2_PLACEMENT_3D ( 'NONE', #143, #147, #148 ) ;
#250 = VECTOR ( 'NONE', #164, 39.37007874015748100 ) ;
#251 = AXIS2_PLACEMENT_3D ( 'NONE', #153, #154, #155 ) ;
#252 = CIRCLE ( 'NONE', #255, 15.00000000000000000 ) ;
#253 = AXIS2_PLACEMENT_3D ( 'NONE', #157, #158, #159 ) ;
#254 = CIRCLE ( 'NONE', #260, 8.000000000000000000 ) ;
#255 = AXIS2_PLACEMENT_3D ( 'NONE', #161, #162, #163 ) ;
#256 = CIRCLE ( 'NONE', #258, 15.00000000000000000 ) ;
#257 = CIRCLE ( 'NONE', #262, 15.00000000000000000 ) ;
#258 = AXIS2_PLACEMENT_3D ( 'NONE', #165, #166, #167 ) ;
#259 = VECTOR ( 'NONE', #176, 39.37007874015748100 ) ;
#260 = AXIS2_PLACEMENT_3D ( 'NONE', #168, #169, #170 ) ;
#261 = VECTOR ( 'NONE', #189, 39.37007874015748100 ) ;
#262 = AXIS2_PLACEMENT_3D ( 'NONE', #173, #174, #175 ) ;
#263 = VECTOR ( 'NONE', #179, 39.37007874015748100 ) ;
#264 = CIRCLE ( 'NONE', #266, 8.000000000000000000 ) ;
#265 = CIRCLE ( 'NONE', #267, 8.000000000000000000 ) ;
#266 = AXIS2_PLACEMENT_3D ( 'NONE', #181, #182, #183 ) ;
#267 = AXIS2_PLACEMENT_3D ( 'NONE', #186, #187, #188 ) ;
#268 = CIRCLE ( 'NONE', #270, 15.00000000000000000 ) ;
#269 = VECTOR ( 'NONE', #193, 39.37007874015748100 ) ;
#270 = AXIS2_PLACEMENT_3D ( 'NONE', #190, #191, #192 ) ;
#271 = VECTOR ( 'NONE', #196, 39.37007874015748100 ) ;
#272 = COLOUR_RGB ( '',0.7921568627450980000, 0.8196078431372548800, 0.9333333333333333500 ) ;
#273 = STYLED_ITEM ( 'NONE', ( #210 ), #109 ) ;
#274 =( GEOMETRIC_REPRESENTATION_CONTEXT ( 3 ) GLOBAL_UNCERTAINTY_ASSIGNED_CONTEXT ( ( #113 ) ) GLOBAL_UNIT_ASSIGNED_CONTEXT ( ( #199, #200, #201 ) ) REPRESENTATION_CONTEXT ( 'NONE', 'WORKASPACE' ) );
#275 = PRESENTATION_LAYER_ASSIGNMENT (  '', '', ( #273 ) ) ;
#276 = MECHANICAL_DESIGN_GEOMETRIC_PRESENTATION_REPRESENTATION (  '', ( #273 ), #277 ) ;
#277 =( GEOMETRIC_REPRESENTATION_CONTEXT ( 3 ) GLOBAL_UNCERTAINTY_ASSIGNED_CONTEXT ( ( #114 ) ) GLOBAL_UNIT_ASSIGNED_CONTEXT ( ( #213, #214, #215 ) ) REPRESENTATION_CONTEXT ( 'NONE', 'WORKASPACE' ) );
#278 = AXIS2_PLACEMENT_3D ( 'NONE', #216, #217, #218 ) ;
#279 = PRODUCT_DEFINITION_FORMATION_WITH_SPECIFIED_SOURCE ( 'TUTTO', '', #222, .NOT_KNOWN. ) ;
#280 = ADVANCED_FACE ( 'NONE', ( #63 ), #102, .T. ) ;
#281 = ADVANCED_FACE ( 'NONE', ( #25 ), #43, .T. ) ;
#282 = ADVANCED_FACE ( 'NONE', ( #21 ), #9, .F. ) ;
#283 = ADVANCED_FACE ( 'NONE', ( #48 ), #14, .F. ) ;
#284 = ADVANCED_FACE ( 'NONE', ( #2 ), #38, .F. ) ;
#285 = ADVANCED_FACE ( 'NONE', ( #117 ), #116, .T. ) ;
#286 = ADVANCED_FACE ( 'NONE', ( #123 ), #122, .T. ) ;
#287 = ADVANCED_FACE ( 'NONE', ( #128, #130 ), #131, .T. ) ;
#288 = ADVANCED_FACE ( 'NONE', ( #135 ), #134, .T. ) ;
#289 = EDGE_CURVE ( 'NONE', #85, #83, #229, .T. ) ;
#290 = EDGE_CURVE ( 'NONE', #74, #78, #234, .T. ) ;
#291 = ADVANCED_FACE ( 'NONE', ( #137, #138 ), #139, .T. ) ;
#292 = EDGE_CURVE ( 'NONE', #83, #85, #230, .T. ) ;
#293 = EDGE_CURVE ( 'NONE', #76, #77, #247, .T. ) ;
#294 = EDGE_CURVE ( 'NONE', #78, #74, #248, .T. ) ;
#295 = EDGE_CURVE ( 'NONE', #79, #82, #252, .T. ) ;
#296 = EDGE_CURVE ( 'NONE', #83, #78, #160, .T. ) ;
#297 = EDGE_CURVE ( 'NONE', #80, #86, #256, .T. ) ;
#298 = EDGE_CURVE ( 'NONE', #84, #81, #254, .T. ) ;
#299 = EDGE_CURVE ( 'NONE', #82, #79, #257, .T. ) ;
#300 = EDGE_CURVE ( 'NONE', #85, #74, #172, .T. ) ;
#301 = EDGE_CURVE ( 'NONE', #80, #79, #177, .T. ) ;
#302 = EDGE_CURVE ( 'NONE', #77, #76, #264, .T. ) ;
#303 = EDGE_CURVE ( 'NONE', #81, #84, #265, .T. ) ;
#304 = EDGE_CURVE ( 'NONE', #76, #84, #185, .T. ) ;
#305 = EDGE_CURVE ( 'NONE', #86, #80, #268, .T. ) ;
#306 = EDGE_CURVE ( 'NONE', #77, #81, #171, .T. ) ;
#307 = EDGE_CURVE ( 'NONE', #86, #82, #194, .T. ) ;
#308 = PRODUCT_DEFINITION ( 'NON CONOSCIUTO', '', #279, #112 ) ;
#309 = PRODUCT_RELATED_PRODUCT_CATEGORY ( 'part', '', ( #222 ) ) ;
ENDSEC;
END-ISO-10303-21;
