ISO-10303-21;
HEADER;
FILE_DESCRIPTION (( 'STEP AP203' ),
    '1' );
FILE_NAME ('084.303.007.STEP',
    '2015-01-15T11:22:44',
    ( '' ),
    ( '' ),
    'SwSTEP 2.0',
    'SolidWorks 2012',
    '' );
FILE_SCHEMA (( 'CONFIG_CONTROL_DESIGN' ));
ENDSEC;

DATA;
#1 = PLANE ( 'NONE',  #155 ) ;
#2 = CARTESIAN_POINT ( 'NONE',  ( 0.0000000000000000000, 0.0000000000000000000, 0.0000000000000000000 ) ) ;
#3 = PLANE ( 'NONE',  #156 ) ;
#4 = CARTESIAN_POINT ( 'NONE',  ( 8.000000000000003600, 7.999999999999998200, 2.000000000000000000 ) ) ;
#5 = DIRECTION ( 'NONE',  ( 1.084202172485504400E-016, -1.000000000000000000, 0.0000000000000000000 ) ) ;
#6 = DIRECTION ( 'NONE',  ( 1.000000000000000000, 1.084202172485504400E-016, 0.0000000000000000000 ) ) ;
#7 = VECTOR ( 'NONE', #16, 1000.000000000000000 ) ;
#8 = CIRCLE ( 'NONE', #147, 4.250000000000000000 ) ;
#9 = LINE ( 'NONE', #170, #13 ) ;
#10 = LINE ( 'NONE', #168, #11 ) ;
#11 = VECTOR ( 'NONE', #169, 1000.000000000000000 ) ;
#12 = LINE ( 'NONE', #172, #278 ) ;
#13 = VECTOR ( 'NONE', #171, 1000.000000000000000 ) ;
#14 = DIRECTION ( 'NONE',  ( -0.0000000000000000000, -0.0000000000000000000, -1.000000000000000000 ) ) ;
#15 = CARTESIAN_POINT ( 'NONE',  ( -7.999999999999996400, 7.999999999999996400, 2.000000000000000000 ) ) ;
#16 = DIRECTION ( 'NONE',  ( -0.0000000000000000000, -0.0000000000000000000, -1.000000000000000000 ) ) ;
#17 = DIRECTION ( 'NONE',  ( -0.0000000000000000000, -0.0000000000000000000, -1.000000000000000000 ) ) ;
#18 = CARTESIAN_POINT ( 'NONE',  ( 4.250000000000001800, 5.204748896376250700E-016, 2.000000000000000000 ) ) ;
#19 = CIRCLE ( 'NONE', #160, 4.250000000000000000 ) ;
#20 = LINE ( 'NONE', #45, #24 ) ;
#21 = LINE ( 'NONE', #69, #22 ) ;
#22 = VECTOR ( 'NONE', #68, 1000.000000000000000 ) ;
#23 = CIRCLE ( 'NONE', #140, 4.250000000000000000 ) ;
#24 = VECTOR ( 'NONE', #46, 1000.000000000000000 ) ;
#25 = ORIENTED_EDGE ( 'NONE', *, *, #191, .T. ) ;
#26 = ORIENTED_EDGE ( 'NONE', *, *, #203, .T. ) ;
#27 = ORIENTED_EDGE ( 'NONE', *, *, #198, .F. ) ;
#28 = ORIENTED_EDGE ( 'NONE', *, *, #193, .T. ) ;
#29 = ORIENTED_EDGE ( 'NONE', *, *, #206, .F. ) ;
#30 = ORIENTED_EDGE ( 'NONE', *, *, #202, .T. ) ;
#31 = ORIENTED_EDGE ( 'NONE', *, *, #201, .T. ) ;
#32 = ORIENTED_EDGE ( 'NONE', *, *, #200, .T. ) ;
#33 = ORIENTED_EDGE ( 'NONE', *, *, #197, .T. ) ;
#34 = ORIENTED_EDGE ( 'NONE', *, *, #194, .T. ) ;
#35 = ORIENTED_EDGE ( 'NONE', *, *, #198, .T. ) ;
#36 = ORIENTED_EDGE ( 'NONE', *, *, #193, .F. ) ;
#37 = ORIENTED_EDGE ( 'NONE', *, *, #195, .F. ) ;
#38 = EDGE_LOOP ( 'NONE', ( #289, #279, #280, #281 ) ) ;
#39 = EDGE_LOOP ( 'NONE', ( #27, #26, #28, #29 ) ) ;
#40 = EDGE_LOOP ( 'NONE', ( #282, #283, #284, #25 ) ) ;
#41 = CARTESIAN_POINT ( 'NONE',  ( -4.249999999999998200, 0.0000000000000000000, 0.0000000000000000000 ) ) ;
#42 = CARTESIAN_POINT ( 'NONE',  ( 1.734723475976807100E-015, 0.0000000000000000000, 2.000000000000000000 ) ) ;
#43 = DIRECTION ( 'NONE',  ( 0.0000000000000000000, 0.0000000000000000000, 1.000000000000000000 ) ) ;
#44 = DIRECTION ( 'NONE',  ( 1.000000000000000000, 0.0000000000000000000, 0.0000000000000000000 ) ) ;
#45 = CARTESIAN_POINT ( 'NONE',  ( 8.000000000000003600, 7.999999999999998200, 0.0000000000000000000 ) ) ;
#46 = DIRECTION ( 'NONE',  ( -1.000000000000000000, -1.084202172485504400E-016, 0.0000000000000000000 ) ) ;
#47 = PERSON_AND_ORGANIZATION ( #245, #256 ) ;
#48 = COORDINATED_UNIVERSAL_TIME_OFFSET ( 1, 0, .AHEAD. ) ;
#49 = LOCAL_TIME ( 12, 22, 44.00000000000000000, #48 ) ;
#50 = CALENDAR_DATE ( 2015, 15, 1 ) ;
#51 = DATE_AND_TIME ( #50, #49 ) ;
#52 = PERSON_AND_ORGANIZATION ( #245, #256 ) ;
#53 = APPROVAL_PERSON_ORGANIZATION ( #52, #142, #126 ) ;
#54 = COORDINATED_UNIVERSAL_TIME_OFFSET ( 1, 0, .AHEAD. ) ;
#55 = LOCAL_TIME ( 12, 22, 44.00000000000000000, #54 ) ;
#56 = CALENDAR_DATE ( 2015, 15, 1 ) ;
#57 = DATE_AND_TIME ( #56, #55 ) ;
#58 = APPROVAL_DATE_TIME ( #57, #142 ) ;
#59 = EDGE_LOOP ( 'NONE', ( #33, #35, #294, #36 ) ) ;
#60 = VERTEX_POINT ( 'NONE', #298 ) ;
#61 = FACE_OUTER_BOUND ( 'NONE', #130, .T. ) ;
#62 = CLOSED_SHELL ( 'NONE', ( #174, #175, #181, #176, #178, #177, #180, #179 ) ) ;
#63 = VERTEX_POINT ( 'NONE', #299 ) ;
#64 = VERTEX_POINT ( 'NONE', #300 ) ;
#65 = CARTESIAN_POINT ( 'NONE',  ( 1.734723475976807100E-015, 0.0000000000000000000, 2.000000000000000000 ) ) ;
#66 = DIRECTION ( 'NONE',  ( 0.0000000000000000000, 0.0000000000000000000, 1.000000000000000000 ) ) ;
#67 = DIRECTION ( 'NONE',  ( 1.000000000000000000, 0.0000000000000000000, 0.0000000000000000000 ) ) ;
#68 = DIRECTION ( 'NONE',  ( -0.0000000000000000000, -1.000000000000000000, -0.0000000000000000000 ) ) ;
#69 = CARTESIAN_POINT ( 'NONE',  ( -7.999999999999996400, -8.000000000000003600, 0.0000000000000000000 ) ) ;
#70 = CARTESIAN_POINT ( 'NONE',  ( 4.250000000000001800, 5.204748896376250700E-016, 0.0000000000000000000 ) ) ;
#71 = CARTESIAN_POINT ( 'NONE',  ( 1.734723475976807100E-015, 0.0000000000000000000, 0.0000000000000000000 ) ) ;
#72 = DIRECTION ( 'NONE',  ( 0.0000000000000000000, 0.0000000000000000000, 1.000000000000000000 ) ) ;
#73 = DIRECTION ( 'NONE',  ( -0.0000000000000000000, -0.0000000000000000000, -1.000000000000000000 ) ) ;
#74 = PLANE ( 'NONE',  #184 ) ;
#75 = CARTESIAN_POINT ( 'NONE',  ( 8.000000000000003600, 7.999999999999998200, 2.000000000000000000 ) ) ;
#76 = CARTESIAN_POINT ( 'NONE',  ( -7.999999999999996400, -8.000000000000003600, 2.000000000000000000 ) ) ;
#77 = DIRECTION ( 'NONE',  ( -0.0000000000000000000, -0.0000000000000000000, -1.000000000000000000 ) ) ;
#78 = DIRECTION ( 'NONE',  ( -0.0000000000000000000, -0.0000000000000000000, -1.000000000000000000 ) ) ;
#79 = DIRECTION ( 'NONE',  ( -0.0000000000000000000, -1.000000000000000000, -0.0000000000000000000 ) ) ;
#80 = ADVANCED_BREP_SHAPE_REPRESENTATION ( '084.303.007', ( #82, #163 ), #148 ) ;
#81 = UNCERTAINTY_MEASURE_WITH_UNIT (LENGTH_MEASURE( 1.000000000000000100E-005 ), #215, 'distance_accuracy_value', 'NONE');
#82 = MANIFOLD_SOLID_BREP ( 'Estrusione-Estrusione1', #62 ) ;
#83 = APPLICATION_PROTOCOL_DEFINITION ( 'international standard', 'config_control_design', 1994, #218 ) ;
#84 = DIRECTION ( 'NONE',  ( 0.0000000000000000000, 0.0000000000000000000, 1.000000000000000000 ) ) ;
#85 = DIRECTION ( 'NONE',  ( 1.000000000000000000, 0.0000000000000000000, 0.0000000000000000000 ) ) ;
#86 = MECHANICAL_CONTEXT ( 'NONE', #218, 'mechanical' ) ;
#87 = PERSON_AND_ORGANIZATION_ROLE ( 'design_owner' ) ;
#88 = APPLICATION_CONTEXT ( 'configuration controlled 3d designs of mechanical parts and assemblies' ) ;
#89 = APPLICATION_PROTOCOL_DEFINITION ( 'international standard', 'config_control_design', 1994, #88 ) ;
#90 = APPROVAL_STATUS ( 'not_yet_approved' ) ;
#91 = APPROVAL_ROLE ( '' ) ;
#92 = PERSON_AND_ORGANIZATION_ROLE ( 'creator' ) ;
#93 = VERTEX_POINT ( 'NONE', #302 ) ;
#94 = FACE_OUTER_BOUND ( 'NONE', #129, .T. ) ;
#95 = FACE_OUTER_BOUND ( 'NONE', #287, .T. ) ;
#96 = FACE_OUTER_BOUND ( 'NONE', #59, .T. ) ;
#97 = FACE_OUTER_BOUND ( 'NONE', #39, .T. ) ;
#98 = FACE_OUTER_BOUND ( 'NONE', #38, .T. ) ;
#99 = CYLINDRICAL_SURFACE ( 'NONE', #192, 4.250000000000000000 ) ;
#100 = FACE_BOUND ( 'NONE', #128, .T. ) ;
#101 = ORIENTED_EDGE ( 'NONE', *, *, #187, .F. ) ;
#102 = ORIENTED_EDGE ( 'NONE', *, *, #186, .T. ) ;
#103 = ORIENTED_EDGE ( 'NONE', *, *, #194, .F. ) ;
#104 = ORIENTED_EDGE ( 'NONE', *, *, #204, .T. ) ;
#105 = ORIENTED_EDGE ( 'NONE', *, *, #205, .F. ) ;
#106 = ORIENTED_EDGE ( 'NONE', *, *, #203, .F. ) ;
#107 = ORIENTED_EDGE ( 'NONE', *, *, #204, .F. ) ;
#108 = ORIENTED_EDGE ( 'NONE', *, *, #197, .F. ) ;
#109 = DATE_AND_TIME ( #262, #261 ) ;
#110 = APPROVAL_DATE_TIME ( #109, #162 ) ;
#111 = PERSON_AND_ORGANIZATION ( #245, #256 ) ;
#112 = COORDINATED_UNIVERSAL_TIME_OFFSET ( 1, 0, .AHEAD. ) ;
#113 = LOCAL_TIME ( 12, 22, 44.00000000000000000, #112 ) ;
#114 = CALENDAR_DATE ( 2015, 15, 1 ) ;
#115 = DATE_AND_TIME ( #114, #113 ) ;
#116 = PERSON_AND_ORGANIZATION ( #245, #256 ) ;
#117 = DATE_TIME_ROLE ( 'creation_date' ) ;
#118 = APPROVAL_STATUS ( 'not_yet_approved' ) ;
#119 = APPROVAL_ROLE ( '' ) ;
#120 = PERSON_AND_ORGANIZATION_ROLE ( 'creator' ) ;
#121 = PERSON_AND_ORGANIZATION_ROLE ( 'design_supplier' ) ;
#122 = SECURITY_CLASSIFICATION_LEVEL ( 'unclassified' ) ;
#123 = PERSON_AND_ORGANIZATION_ROLE ( 'classification_officer' ) ;
#124 = DATE_TIME_ROLE ( 'classification_date' ) ;
#125 = APPROVAL_STATUS ( 'not_yet_approved' ) ;
#126 = APPROVAL_ROLE ( '' ) ;
#127 = EDGE_LOOP ( 'NONE', ( #107, #105, #286, #285 ) ) ;
#128 = EDGE_LOOP ( 'NONE', ( #108, #106 ) ) ;
#129 = EDGE_LOOP ( 'NONE', ( #34, #32, #31, #30 ) ) ;
#130 = EDGE_LOOP ( 'NONE', ( #102, #101, #290, #288 ) ) ;
#131 = EDGE_LOOP ( 'NONE', ( #293, #292 ) ) ;
#132 = DIRECTION ( 'NONE',  ( -1.000000000000000000, 0.0000000000000000000, 0.0000000000000000000 ) ) ;
#133 = DIRECTION ( 'NONE',  ( 0.0000000000000000000, 0.0000000000000000000, 1.000000000000000000 ) ) ;
#134 = PLANE ( 'NONE',  #189 ) ;
#135 = DIRECTION ( 'NONE',  ( 0.0000000000000000000, -0.0000000000000000000, 1.000000000000000000 ) ) ;
#136 = CARTESIAN_POINT ( 'NONE',  ( 8.000000000000003600, -8.000000000000001800, 2.000000000000000000 ) ) ;
#137 = DIRECTION ( 'NONE',  ( -1.084202172485504400E-016, 1.000000000000000000, 0.0000000000000000000 ) ) ;
#138 = DIRECTION ( 'NONE',  ( -1.000000000000000000, -1.084202172485504400E-016, 0.0000000000000000000 ) ) ;
#139 = DIRECTION ( 'NONE',  ( -1.000000000000000000, 0.0000000000000000000, 0.0000000000000000000 ) ) ;
#140 = AXIS2_PLACEMENT_3D ( 'NONE', #231, #232, #233 ) ;
#141 = CC_DESIGN_PERSON_AND_ORGANIZATION_ASSIGNMENT ( #243, #120, ( #152 ) ) ;
#142 = APPROVAL ( #125, 'NON SPECIFICATO' ) ;
#143 = CC_DESIGN_DATE_AND_TIME_ASSIGNMENT ( #51, #124, ( #165 ) ) ;
#144 = CC_DESIGN_PERSON_AND_ORGANIZATION_ASSIGNMENT ( #244, #121, ( #152 ) ) ;
#145 = AXIS2_PLACEMENT_3D ( 'NONE', #307, #73, #139 ) ;
#146 = CC_DESIGN_PERSON_AND_ORGANIZATION_ASSIGNMENT ( #111, #92, ( #159 ) ) ;
#147 = AXIS2_PLACEMENT_3D ( 'NONE', #71, #72, #167 ) ;
#148 =( GEOMETRIC_REPRESENTATION_CONTEXT ( 3 ) GLOBAL_UNCERTAINTY_ASSIGNED_CONTEXT ( ( #81 ) ) GLOBAL_UNIT_ASSIGNED_CONTEXT ( ( #215, #216, #217 ) ) REPRESENTATION_CONTEXT ( 'NONE', 'WORKASPACE' ) );
#149 = PRODUCT_RELATED_PRODUCT_CATEGORY ( 'detail', '', ( #246 ) ) ;
#150 = CC_DESIGN_PERSON_AND_ORGANIZATION_ASSIGNMENT ( #47, #123, ( #165 ) ) ;
#151 = CC_DESIGN_APPROVAL ( #142, ( #165 ) ) ;
#152 = PRODUCT_DEFINITION_FORMATION_WITH_SPECIFIED_SOURCE ( 'TUTTO', '', #246, .NOT_KNOWN. ) ;
#153 = AXIS2_PLACEMENT_3D ( 'NONE', #65, #66, #67 ) ;
#154 = CC_DESIGN_DATE_AND_TIME_ASSIGNMENT ( #115, #117, ( #159 ) ) ;
#155 = AXIS2_PLACEMENT_3D ( 'NONE', #4, #5, #6 ) ;
#156 = AXIS2_PLACEMENT_3D ( 'NONE', #2, #135, #219 ) ;
#157 = APPROVAL ( #118, 'NON SPECIFICATO' ) ;
#158 = CC_DESIGN_SECURITY_CLASSIFICATION ( #165, ( #152 ) ) ;
#159 = PRODUCT_DEFINITION ( 'NON CONOSCIUTO', '', #152, #183 ) ;
#160 = AXIS2_PLACEMENT_3D ( 'NONE', #42, #43, #44 ) ;
#161 = CC_DESIGN_PERSON_AND_ORGANIZATION_ASSIGNMENT ( #257, #87, ( #246 ) ) ;
#162 = APPROVAL ( #90, 'NON SPECIFICATO' ) ;
#163 = AXIS2_PLACEMENT_3D ( 'NONE', #214, #84, #85 ) ;
#164 = CC_DESIGN_APPROVAL ( #162, ( #159 ) ) ;
#165 = SECURITY_CLASSIFICATION ( '', '', #122 ) ;
#166 = CC_DESIGN_APPROVAL ( #157, ( #152 ) ) ;
#167 = DIRECTION ( 'NONE',  ( 1.000000000000000000, 0.0000000000000000000, 0.0000000000000000000 ) ) ;
#168 = CARTESIAN_POINT ( 'NONE',  ( 8.000000000000003600, -8.000000000000001800, 2.000000000000000000 ) ) ;
#169 = DIRECTION ( 'NONE',  ( 1.000000000000000000, 1.084202172485504400E-016, -0.0000000000000000000 ) ) ;
#170 = CARTESIAN_POINT ( 'NONE',  ( 8.000000000000003600, -8.000000000000001800, 2.000000000000000000 ) ) ;
#171 = DIRECTION ( 'NONE',  ( 0.0000000000000000000, 1.000000000000000000, 0.0000000000000000000 ) ) ;
#172 = CARTESIAN_POINT ( 'NONE',  ( 8.000000000000003600, 7.999999999999998200, 2.000000000000000000 ) ) ;
#173 = DIRECTION ( 'NONE',  ( -1.000000000000000000, -1.084202172485504400E-016, 0.0000000000000000000 ) ) ;
#174 = ADVANCED_FACE ( 'NONE', ( #96 ), #99, .F. ) ;
#175 = ADVANCED_FACE ( 'NONE', ( #94, #100 ), #74, .T. ) ;
#176 = ADVANCED_FACE ( 'NONE', ( #95 ), #306, .F. ) ;
#177 = ADVANCED_FACE ( 'NONE', ( #98 ), #311, .F. ) ;
#178 = ADVANCED_FACE ( 'NONE', ( #61 ), #134, .F. ) ;
#179 = ADVANCED_FACE ( 'NONE', ( #97 ), #267, .F. ) ;
#180 = ADVANCED_FACE ( 'NONE', ( #265 ), #1, .F. ) ;
#181 = ADVANCED_FACE ( 'NONE', ( #264, #269 ), #3, .F. ) ;
#182 = PRODUCT_DEFINITION_SHAPE ( 'NONE', 'NONE',  #159 ) ;
#183 = DESIGN_CONTEXT ( 'detailed design', #88, 'design' ) ;
#184 = AXIS2_PLACEMENT_3D ( 'NONE', #295, #304, #305 ) ;
#185 = EDGE_CURVE ( 'NONE', #254, #247, #270, .T. ) ;
#186 = EDGE_CURVE ( 'NONE', #63, #254, #271, .T. ) ;
#187 = EDGE_CURVE ( 'NONE', #60, #254, #274, .T. ) ;
#188 = AXIS2_PLACEMENT_3D ( 'NONE', #308, #309, #310 ) ;
#189 = AXIS2_PLACEMENT_3D ( 'NONE', #136, #137, #138 ) ;
#190 = AXIS2_PLACEMENT_3D ( 'NONE', #303, #132, #133 ) ;
#191 = EDGE_CURVE ( 'NONE', #64, #247, #273, .T. ) ;
#192 = AXIS2_PLACEMENT_3D ( 'NONE', #297, #296, #301 ) ;
#193 = EDGE_CURVE ( 'NONE', #251, #250, #268, .T. ) ;
#194 = EDGE_CURVE ( 'NONE', #249, #253, #207, .T. ) ;
#195 = EDGE_CURVE ( 'NONE', #253, #63, #210, .T. ) ;
#196 = EDGE_CURVE ( 'NONE', #249, #93, #209, .T. ) ;
#197 = EDGE_CURVE ( 'NONE', #251, #248, #276, .T. ) ;
#198 = EDGE_CURVE ( 'NONE', #248, #252, #212, .T. ) ;
#199 = EDGE_CURVE ( 'NONE', #250, #252, #8, .T. ) ;
#200 = EDGE_CURVE ( 'NONE', #253, #60, #10, .T. ) ;
#201 = EDGE_CURVE ( 'NONE', #60, #64, #9, .T. ) ;
#202 = EDGE_CURVE ( 'NONE', #64, #249, #12, .T. ) ;
#203 = EDGE_CURVE ( 'NONE', #248, #251, #19, .T. ) ;
#204 = EDGE_CURVE ( 'NONE', #93, #63, #21, .T. ) ;
#205 = EDGE_CURVE ( 'NONE', #247, #93, #20, .T. ) ;
#206 = EDGE_CURVE ( 'NONE', #252, #250, #23, .T. ) ;
#207 = LINE ( 'NONE', #225, #208 ) ;
#208 = VECTOR ( 'NONE', #79, 1000.000000000000000 ) ;
#209 = LINE ( 'NONE', #15, #213 ) ;
#210 = LINE ( 'NONE', #76, #211 ) ;
#211 = VECTOR ( 'NONE', #14, 1000.000000000000000 ) ;
#212 = LINE ( 'NONE', #18, #7 ) ;
#213 = VECTOR ( 'NONE', #17, 1000.000000000000000 ) ;
#214 = CARTESIAN_POINT ( 'NONE',  ( 0.0000000000000000000, 0.0000000000000000000, 0.0000000000000000000 ) ) ;
#215 =( LENGTH_UNIT ( ) NAMED_UNIT ( * ) SI_UNIT ( .MILLI., .METRE. ) );
#216 =( NAMED_UNIT ( * ) PLANE_ANGLE_UNIT ( ) SI_UNIT ( $, .RADIAN. ) );
#217 =( NAMED_UNIT ( * ) SI_UNIT ( $, .STERADIAN. ) SOLID_ANGLE_UNIT ( ) );
#218 = APPLICATION_CONTEXT ( 'configuration controlled 3d designs of mechanical parts and assemblies' ) ;
#219 = DIRECTION ( 'NONE',  ( 1.000000000000000000, 0.0000000000000000000, -0.0000000000000000000 ) ) ;
#220 = CARTESIAN_POINT ( 'NONE',  ( 8.000000000000003600, -8.000000000000001800, 0.0000000000000000000 ) ) ;
#221 = CARTESIAN_POINT ( 'NONE',  ( 8.000000000000003600, -8.000000000000001800, 2.000000000000000000 ) ) ;
#222 = CARTESIAN_POINT ( 'NONE',  ( -4.249999999999998200, 0.0000000000000000000, 2.000000000000000000 ) ) ;
#223 = CARTESIAN_POINT ( 'NONE',  ( 8.000000000000003600, -8.000000000000001800, 0.0000000000000000000 ) ) ;
#224 = DIRECTION ( 'NONE',  ( 0.0000000000000000000, 1.000000000000000000, 0.0000000000000000000 ) ) ;
#225 = CARTESIAN_POINT ( 'NONE',  ( -7.999999999999996400, -8.000000000000003600, 2.000000000000000000 ) ) ;
#226 = DIRECTION ( 'NONE',  ( 1.000000000000000000, 1.084202172485504400E-016, -0.0000000000000000000 ) ) ;
#227 = DIRECTION ( 'NONE',  ( -0.0000000000000000000, -0.0000000000000000000, -1.000000000000000000 ) ) ;
#228 = CARTESIAN_POINT ( 'NONE',  ( 4.250000000000001800, 5.204748896376250700E-016, 2.000000000000000000 ) ) ;
#229 = CARTESIAN_POINT ( 'NONE',  ( 8.000000000000003600, 7.999999999999998200, 0.0000000000000000000 ) ) ;
#230 = CARTESIAN_POINT ( 'NONE',  ( 8.000000000000003600, -8.000000000000001800, 0.0000000000000000000 ) ) ;
#231 = CARTESIAN_POINT ( 'NONE',  ( 1.734723475976807100E-015, 0.0000000000000000000, 0.0000000000000000000 ) ) ;
#232 = DIRECTION ( 'NONE',  ( 0.0000000000000000000, 0.0000000000000000000, 1.000000000000000000 ) ) ;
#233 = DIRECTION ( 'NONE',  ( 1.000000000000000000, 0.0000000000000000000, 0.0000000000000000000 ) ) ;
#234 = CARTESIAN_POINT ( 'NONE',  ( -7.999999999999996400, 7.999999999999996400, 2.000000000000000000 ) ) ;
#235 = CARTESIAN_POINT ( 'NONE',  ( -4.249999999999998200, 0.0000000000000000000, 2.000000000000000000 ) ) ;
#236 = CARTESIAN_POINT ( 'NONE',  ( -7.999999999999996400, -8.000000000000003600, 2.000000000000000000 ) ) ;
#237 = APPROVAL_PERSON_ORGANIZATION ( #116, #157, #119 ) ;
#238 = COORDINATED_UNIVERSAL_TIME_OFFSET ( 1, 0, .AHEAD. ) ;
#239 = LOCAL_TIME ( 12, 22, 44.00000000000000000, #238 ) ;
#240 = CALENDAR_DATE ( 2015, 15, 1 ) ;
#241 = DATE_AND_TIME ( #240, #239 ) ;
#242 = APPROVAL_DATE_TIME ( #241, #157 ) ;
#243 = PERSON_AND_ORGANIZATION ( #245, #256 ) ;
#244 = PERSON_AND_ORGANIZATION ( #245, #256 ) ;
#245 = PERSON ( 'NON SPECIFICATO', 'NON SPECIFICATO', 'NON SPECIFICATO', ('NON SPECIFICATO'), ('NON SPECIFICATO'), ('NON SPECIFICATO') ) ;
#246 = PRODUCT ( '084.303.007', '084.303.007', '', ( #86 ) ) ;
#247 = VERTEX_POINT ( 'NONE', #229 ) ;
#248 = VERTEX_POINT ( 'NONE', #228 ) ;
#249 = VERTEX_POINT ( 'NONE', #234 ) ;
#250 = VERTEX_POINT ( 'NONE', #41 ) ;
#251 = VERTEX_POINT ( 'NONE', #235 ) ;
#252 = VERTEX_POINT ( 'NONE', #70 ) ;
#253 = VERTEX_POINT ( 'NONE', #236 ) ;
#254 = VERTEX_POINT ( 'NONE', #230 ) ;
#255 = SHAPE_DEFINITION_REPRESENTATION ( #182, #80 ) ;
#256 = ORGANIZATION ( 'NON SPECIFICATO', 'NON SPECIFICATO', '' ) ;
#257 = PERSON_AND_ORGANIZATION ( #245, #256 ) ;
#258 = PERSON_AND_ORGANIZATION ( #245, #256 ) ;
#259 = APPROVAL_PERSON_ORGANIZATION ( #258, #162, #91 ) ;
#260 = COORDINATED_UNIVERSAL_TIME_OFFSET ( 1, 0, .AHEAD. ) ;
#261 = LOCAL_TIME ( 12, 22, 44.00000000000000000, #260 ) ;
#262 = CALENDAR_DATE ( 2015, 15, 1 ) ;
#263 = VECTOR ( 'NONE', #78, 1000.000000000000000 ) ;
#264 = FACE_OUTER_BOUND ( 'NONE', #127, .T. ) ;
#265 = FACE_OUTER_BOUND ( 'NONE', #40, .T. ) ;
#266 = VECTOR ( 'NONE', #224, 1000.000000000000000 ) ;
#267 = CYLINDRICAL_SURFACE ( 'NONE', #145, 4.250000000000000000 ) ;
#268 = LINE ( 'NONE', #222, #263 ) ;
#269 = FACE_BOUND ( 'NONE', #131, .T. ) ;
#270 = LINE ( 'NONE', #223, #266 ) ;
#271 = LINE ( 'NONE', #220, #272 ) ;
#272 = VECTOR ( 'NONE', #226, 1000.000000000000000 ) ;
#273 = LINE ( 'NONE', #75, #277 ) ;
#274 = LINE ( 'NONE', #221, #275 ) ;
#275 = VECTOR ( 'NONE', #227, 1000.000000000000000 ) ;
#276 = CIRCLE ( 'NONE', #153, 4.250000000000000000 ) ;
#277 = VECTOR ( 'NONE', #77, 1000.000000000000000 ) ;
#278 = VECTOR ( 'NONE', #173, 1000.000000000000000 ) ;
#279 = ORIENTED_EDGE ( 'NONE', *, *, #191, .F. ) ;
#280 = ORIENTED_EDGE ( 'NONE', *, *, #201, .F. ) ;
#281 = ORIENTED_EDGE ( 'NONE', *, *, #187, .T. ) ;
#282 = ORIENTED_EDGE ( 'NONE', *, *, #205, .T. ) ;
#283 = ORIENTED_EDGE ( 'NONE', *, *, #196, .F. ) ;
#284 = ORIENTED_EDGE ( 'NONE', *, *, #202, .F. ) ;
#285 = ORIENTED_EDGE ( 'NONE', *, *, #186, .F. ) ;
#286 = ORIENTED_EDGE ( 'NONE', *, *, #185, .F. ) ;
#287 = EDGE_LOOP ( 'NONE', ( #104, #37, #103, #291 ) ) ;
#288 = ORIENTED_EDGE ( 'NONE', *, *, #195, .T. ) ;
#289 = ORIENTED_EDGE ( 'NONE', *, *, #185, .T. ) ;
#290 = ORIENTED_EDGE ( 'NONE', *, *, #200, .F. ) ;
#291 = ORIENTED_EDGE ( 'NONE', *, *, #196, .T. ) ;
#292 = ORIENTED_EDGE ( 'NONE', *, *, #206, .T. ) ;
#293 = ORIENTED_EDGE ( 'NONE', *, *, #199, .T. ) ;
#294 = ORIENTED_EDGE ( 'NONE', *, *, #199, .F. ) ;
#295 = CARTESIAN_POINT ( 'NONE',  ( 0.0000000000000000000, 0.0000000000000000000, 2.000000000000000000 ) ) ;
#296 = DIRECTION ( 'NONE',  ( -0.0000000000000000000, -0.0000000000000000000, -1.000000000000000000 ) ) ;
#297 = CARTESIAN_POINT ( 'NONE',  ( 1.734723475976807100E-015, 0.0000000000000000000, 2.000000000000000000 ) ) ;
#298 = CARTESIAN_POINT ( 'NONE',  ( 8.000000000000003600, -8.000000000000001800, 2.000000000000000000 ) ) ;
#299 = CARTESIAN_POINT ( 'NONE',  ( -7.999999999999996400, -8.000000000000003600, 0.0000000000000000000 ) ) ;
#300 = CARTESIAN_POINT ( 'NONE',  ( 8.000000000000003600, 7.999999999999998200, 2.000000000000000000 ) ) ;
#301 = DIRECTION ( 'NONE',  ( -1.000000000000000000, 0.0000000000000000000, 0.0000000000000000000 ) ) ;
#302 = CARTESIAN_POINT ( 'NONE',  ( -7.999999999999996400, 7.999999999999996400, 0.0000000000000000000 ) ) ;
#303 = CARTESIAN_POINT ( 'NONE',  ( 8.000000000000003600, -8.000000000000001800, 2.000000000000000000 ) ) ;
#304 = DIRECTION ( 'NONE',  ( 0.0000000000000000000, -0.0000000000000000000, 1.000000000000000000 ) ) ;
#305 = DIRECTION ( 'NONE',  ( 1.000000000000000000, 0.0000000000000000000, -0.0000000000000000000 ) ) ;
#306 = PLANE ( 'NONE',  #188 ) ;
#307 = CARTESIAN_POINT ( 'NONE',  ( 1.734723475976807100E-015, 0.0000000000000000000, 2.000000000000000000 ) ) ;
#308 = CARTESIAN_POINT ( 'NONE',  ( -7.999999999999996400, -8.000000000000003600, 2.000000000000000000 ) ) ;
#309 = DIRECTION ( 'NONE',  ( 1.000000000000000000, 0.0000000000000000000, 0.0000000000000000000 ) ) ;
#310 = DIRECTION ( 'NONE',  ( 0.0000000000000000000, 0.0000000000000000000, -1.000000000000000000 ) ) ;
#311 = PLANE ( 'NONE',  #190 ) ;
ENDSEC;
END-ISO-10303-21;
