ISO-10303-21;
HEADER;
FILE_DESCRIPTION (( 'STEP AP203' ),
    '1' );
FILE_NAME ('084.303.004.STEP',
    '2013-01-25T08:53:20',
    ( 'Alusic' ),
    ( 'Alusic' ),
    'SwSTEP 2.0',
    'SolidWorks 2011',
    '' );
FILE_SCHEMA (( 'CONFIG_CONTROL_DESIGN' ));
ENDSEC;

DATA;
#1 = ORIENTED_EDGE ( 'NONE', *, *, #51, .F. ) ;
#2 = ORIENTED_EDGE ( 'NONE', *, *, #10, .T. ) ;
#3 = EDGE_LOOP ( 'NONE', ( #20, #14, #5, #16 ) ) ;
#4 = EDGE_LOOP ( 'NONE', ( #13, #26, #28, #23 ) ) ;
#5 = ORIENTED_EDGE ( 'NONE', *, *, #37, .T. ) ;
#6 = ORIENTED_EDGE ( 'NONE', *, *, #81, .F. ) ;
#7 = ADVANCED_FACE ( 'NONE', ( #93 ), #103, .F. ) ;
#8 = ORIENTED_EDGE ( 'NONE', *, *, #24, .F. ) ;
#9 = EDGE_LOOP ( 'NONE', ( #12, #25, #6, #8 ) ) ;
#10 = EDGE_CURVE ( 'NONE', #69, #21, #177, .T. ) ;
#11 = ORIENTED_EDGE ( 'NONE', *, *, #86, .T. ) ;
#12 = ORIENTED_EDGE ( 'NONE', *, *, #82, .F. ) ;
#13 = ORIENTED_EDGE ( 'NONE', *, *, #74, .F. ) ;
#14 = ORIENTED_EDGE ( 'NONE', *, *, #46, .T. ) ;
#15 = ADVANCED_FACE ( 'NONE', ( #89, #201 ), #91, .F. ) ;
#16 = ORIENTED_EDGE ( 'NONE', *, *, #18, .T. ) ;
#17 = ORIENTED_EDGE ( 'NONE', *, *, #60, .F. ) ;
#18 = EDGE_CURVE ( 'NONE', #55, #77, #183, .T. ) ;
#19 = ADVANCED_FACE ( 'NONE', ( #94, #105 ), #90, .T. ) ;
#20 = ORIENTED_EDGE ( 'NONE', *, *, #79, .T. ) ;
#21 = VERTEX_POINT ( 'NONE', #119 ) ;
#22 = EDGE_LOOP ( 'NONE', ( #62, #61, #50, #64 ) ) ;
#23 = ORIENTED_EDGE ( 'NONE', *, *, #30, .T. ) ;
#24 = EDGE_CURVE ( 'NONE', #66, #52, #121, .T. ) ;
#25 = ORIENTED_EDGE ( 'NONE', *, *, #38, .F. ) ;
#26 = ORIENTED_EDGE ( 'NONE', *, *, #10, .F. ) ;
#27 = ADVANCED_FACE ( 'NONE', ( #87 ), #122, .F. ) ;
#28 = ORIENTED_EDGE ( 'NONE', *, *, #59, .T. ) ;
#29 = CLOSED_SHELL ( 'NONE', ( #83, #78, #54, #49, #7, #19, #15, #27 ) ) ;
#30 = EDGE_CURVE ( 'NONE', #76, #72, #200, .T. ) ;
#31 = ORIENTED_EDGE ( 'NONE', *, *, #43, .T. ) ;
#32 = ORIENTED_EDGE ( 'NONE', *, *, #30, .F. ) ;
#33 = ORIENTED_EDGE ( 'NONE', *, *, #37, .F. ) ;
#34 = ORIENTED_EDGE ( 'NONE', *, *, #36, .T. ) ;
#35 = ORIENTED_EDGE ( 'NONE', *, *, #36, .F. ) ;
#36 = EDGE_CURVE ( 'NONE', #55, #56, #184, .T. ) ;
#37 = EDGE_CURVE ( 'NONE', #63, #55, #156, .T. ) ;
#38 = EDGE_CURVE ( 'NONE', #56, #65, #152, .T. ) ;
#39 = ORIENTED_EDGE ( 'NONE', *, *, #18, .F. ) ;
#40 = EDGE_LOOP ( 'NONE', ( #32, #17 ) ) ;
#41 = ORIENTED_EDGE ( 'NONE', *, *, #38, .T. ) ;
#42 = ORIENTED_EDGE ( 'NONE', *, *, #24, .T. ) ;
#43 = EDGE_CURVE ( 'NONE', #63, #52, #158, .T. ) ;
#44 = EDGE_LOOP ( 'NONE', ( #2, #11 ) ) ;
#45 = ORIENTED_EDGE ( 'NONE', *, *, #46, .F. ) ;
#46 = EDGE_CURVE ( 'NONE', #75, #63, #148, .T. ) ;
#47 = EDGE_LOOP ( 'NONE', ( #41, #1, #39, #34 ) ) ;
#48 = ORIENTED_EDGE ( 'NONE', *, *, #81, .T. ) ;
#49 = ADVANCED_FACE ( 'NONE', ( #126 ), #144, .F. ) ;
#50 = ORIENTED_EDGE ( 'NONE', *, *, #79, .F. ) ;
#51 = EDGE_CURVE ( 'NONE', #77, #65, #138, .T. ) ;
#52 = VERTEX_POINT ( 'NONE', #142 ) ;
#53 = EDGE_LOOP ( 'NONE', ( #48, #35, #33, #31 ) ) ;
#54 = ADVANCED_FACE ( 'NONE', ( #134 ), #175, .F. ) ;
#55 = VERTEX_POINT ( 'NONE', #127 ) ;
#56 = VERTEX_POINT ( 'NONE', #139 ) ;
#57 = EDGE_LOOP ( 'NONE', ( #42, #80, #45, #67 ) ) ;
#58 = ORIENTED_EDGE ( 'NONE', *, *, #60, .T. ) ;
#59 = EDGE_CURVE ( 'NONE', #69, #76, #129, .T. ) ;
#60 = EDGE_CURVE ( 'NONE', #72, #76, #170, .T. ) ;
#61 = ORIENTED_EDGE ( 'NONE', *, *, #68, .F. ) ;
#62 = ORIENTED_EDGE ( 'NONE', *, *, #82, .T. ) ;
#63 = VERTEX_POINT ( 'NONE', #171 ) ;
#64 = ORIENTED_EDGE ( 'NONE', *, *, #51, .T. ) ;
#65 = VERTEX_POINT ( 'NONE', #130 ) ;
#66 = VERTEX_POINT ( 'NONE', #164 ) ;
#67 = ORIENTED_EDGE ( 'NONE', *, *, #68, .T. ) ;
#68 = EDGE_CURVE ( 'NONE', #75, #66, #161, .T. ) ;
#69 = VERTEX_POINT ( 'NONE', #118 ) ;
#70 = EDGE_LOOP ( 'NONE', ( #73, #71, #58, #84 ) ) ;
#71 = ORIENTED_EDGE ( 'NONE', *, *, #74, .T. ) ;
#72 = VERTEX_POINT ( 'NONE', #163 ) ;
#73 = ORIENTED_EDGE ( 'NONE', *, *, #86, .F. ) ;
#74 = EDGE_CURVE ( 'NONE', #21, #72, #111, .T. ) ;
#75 = VERTEX_POINT ( 'NONE', #162 ) ;
#76 = VERTEX_POINT ( 'NONE', #112 ) ;
#77 = VERTEX_POINT ( 'NONE', #114 ) ;
#78 = ADVANCED_FACE ( 'NONE', ( #108 ), #113, .F. ) ;
#79 = EDGE_CURVE ( 'NONE', #77, #75, #268, .T. ) ;
#80 = ORIENTED_EDGE ( 'NONE', *, *, #43, .F. ) ;
#81 = EDGE_CURVE ( 'NONE', #52, #56, #263, .T. ) ;
#82 = EDGE_CURVE ( 'NONE', #65, #66, #260, .T. ) ;
#83 = ADVANCED_FACE ( 'NONE', ( #203 ), #254, .F. ) ;
#84 = ORIENTED_EDGE ( 'NONE', *, *, #59, .F. ) ;
#85 = MANIFOLD_SOLID_BREP ( 'Taglio-Estrusione1', #29 ) ;
#86 = EDGE_CURVE ( 'NONE', #21, #69, #253, .T. ) ;
#87 = FACE_OUTER_BOUND ( 'NONE', #4, .T. ) ;
#88 = AXIS2_PLACEMENT_3D ( 'NONE', #100, #99, #104 ) ;
#89 = FACE_BOUND ( 'NONE', #44, .T. ) ;
#90 = PLANE ( 'NONE',  #178 ) ;
#91 = PLANE ( 'NONE',  #88 ) ;
#92 = CARTESIAN_POINT ( 'NONE',  ( 0.0000000000000000000, 0.0000000000000000000, 0.0000000000000000000 ) ) ;
#93 = FACE_OUTER_BOUND ( 'NONE', #47, .T. ) ;
#94 = FACE_BOUND ( 'NONE', #40, .T. ) ;
#95 = DIRECTION ( 'NONE',  ( 0.0000000000000000000, -0.0000000000000000000, 1.000000000000000000 ) ) ;
#96 = AXIS2_PLACEMENT_3D ( 'NONE', #92, #98, #97 ) ;
#97 = DIRECTION ( 'NONE',  ( 0.0000000000000000000, 0.0000000000000000000, 1.000000000000000000 ) ) ;
#98 = DIRECTION ( 'NONE',  ( 0.0000000000000000000, 1.000000000000000000, 0.0000000000000000000 ) ) ;
#99 = DIRECTION ( 'NONE',  ( 0.0000000000000000000, 1.000000000000000000, 0.0000000000000000000 ) ) ;
#100 = CARTESIAN_POINT ( 'NONE',  ( -9.499999999999998200, 0.0000000000000000000, -9.500000000000008900 ) ) ;
#101 = AXIS2_PLACEMENT_3D ( 'NONE', #102, #95, #174 ) ;
#102 = CARTESIAN_POINT ( 'NONE',  ( 9.500000000000001800, 2.000000000000000000, -9.500000000000008900 ) ) ;
#103 = PLANE ( 'NONE',  #101 ) ;
#104 = DIRECTION ( 'NONE',  ( 0.0000000000000000000, -0.0000000000000000000, 1.000000000000000000 ) ) ;
#105 = FACE_OUTER_BOUND ( 'NONE', #3, .T. ) ;
#106 = DIRECTION ( 'NONE',  ( 0.0000000000000000000, 0.0000000000000000000, -1.000000000000000000 ) ) ;
#107 = DIRECTION ( 'NONE',  ( 1.000000000000000000, -0.0000000000000000000, 0.0000000000000000000 ) ) ;
#108 = FACE_OUTER_BOUND ( 'NONE', #22, .T. ) ;
#109 = DIRECTION ( 'NONE',  ( -0.0000000000000000000, 1.000000000000000000, -0.0000000000000000000 ) ) ;
#110 = VECTOR ( 'NONE', #109, 1000.000000000000000 ) ;
#111 = LINE ( 'NONE', #159, #110 ) ;
#112 = CARTESIAN_POINT ( 'NONE',  ( 0.0000000000000000000, 2.000000000000000000, 6.250000000000000000 ) ) ;
#113 = PLANE ( 'NONE',  #165 ) ;
#114 = CARTESIAN_POINT ( 'NONE',  ( -9.499999999999998200, 2.000000000000000000, -9.500000000000008900 ) ) ;
#115 = DIRECTION ( 'NONE',  ( -0.0000000000000000000, -1.000000000000000000, -0.0000000000000000000 ) ) ;
#116 = VECTOR ( 'NONE', #115, 1000.000000000000000 ) ;
#117 = CARTESIAN_POINT ( 'NONE',  ( -9.499999999999998200, 2.000000000000000000, 9.499999999999994700 ) ) ;
#118 = CARTESIAN_POINT ( 'NONE',  ( 0.0000000000000000000, 0.0000000000000000000, 6.250000000000000000 ) ) ;
#119 = CARTESIAN_POINT ( 'NONE',  ( 7.654042494670957600E-016, 0.0000000000000000000, -6.250000000000000000 ) ) ;
#120 = CARTESIAN_POINT ( 'NONE',  ( 9.500000000000001800, 0.0000000000000000000, 9.499999999999994700 ) ) ;
#121 = LINE ( 'NONE', #120, #199 ) ;
#122 = CYLINDRICAL_SURFACE ( 'NONE', #125, 6.250000000000000000 ) ;
#123 = DIRECTION ( 'NONE',  ( 0.0000000000000000000, -0.0000000000000000000, 1.000000000000000000 ) ) ;
#124 = DIRECTION ( 'NONE',  ( 0.0000000000000000000, 1.000000000000000000, 0.0000000000000000000 ) ) ;
#125 = AXIS2_PLACEMENT_3D ( 'NONE', #194, #193, #192 ) ;
#126 = FACE_OUTER_BOUND ( 'NONE', #53, .T. ) ;
#127 = CARTESIAN_POINT ( 'NONE',  ( 9.500000000000001800, 2.000000000000000000, -9.500000000000008900 ) ) ;
#128 = DIRECTION ( 'NONE',  ( 0.0000000000000000000, 0.0000000000000000000, 1.000000000000000000 ) ) ;
#129 = LINE ( 'NONE', #168, #167 ) ;
#130 = CARTESIAN_POINT ( 'NONE',  ( -9.499999999999998200, 0.0000000000000000000, -9.500000000000008900 ) ) ;
#131 = DIRECTION ( 'NONE',  ( -0.0000000000000000000, -1.000000000000000000, -0.0000000000000000000 ) ) ;
#132 = VECTOR ( 'NONE', #131, 1000.000000000000000 ) ;
#133 = DIRECTION ( 'NONE',  ( 0.0000000000000000000, 1.000000000000000000, 0.0000000000000000000 ) ) ;
#134 = FACE_OUTER_BOUND ( 'NONE', #57, .T. ) ;
#135 = DIRECTION ( 'NONE',  ( 0.0000000000000000000, 0.0000000000000000000, 1.000000000000000000 ) ) ;
#136 = DIRECTION ( 'NONE',  ( -1.000000000000000000, 0.0000000000000000000, 0.0000000000000000000 ) ) ;
#137 = CARTESIAN_POINT ( 'NONE',  ( 9.500000000000001800, 2.000000000000000000, 9.499999999999994700 ) ) ;
#138 = LINE ( 'NONE', #141, #132 ) ;
#139 = CARTESIAN_POINT ( 'NONE',  ( 9.500000000000001800, 0.0000000000000000000, -9.500000000000008900 ) ) ;
#140 = AXIS2_PLACEMENT_3D ( 'NONE', #169, #133, #128 ) ;
#141 = CARTESIAN_POINT ( 'NONE',  ( -9.499999999999998200, 2.000000000000000000, -9.500000000000008900 ) ) ;
#142 = CARTESIAN_POINT ( 'NONE',  ( 9.500000000000001800, 0.0000000000000000000, 9.499999999999994700 ) ) ;
#143 = CARTESIAN_POINT ( 'NONE',  ( 9.500000000000001800, 2.000000000000000000, 9.499999999999994700 ) ) ;
#144 = PLANE ( 'NONE',  #157 ) ;
#145 = DIRECTION ( 'NONE',  ( 1.000000000000000000, -0.0000000000000000000, -0.0000000000000000000 ) ) ;
#146 = VECTOR ( 'NONE', #145, 1000.000000000000000 ) ;
#147 = CARTESIAN_POINT ( 'NONE',  ( 9.500000000000001800, 2.000000000000000000, 9.499999999999994700 ) ) ;
#148 = LINE ( 'NONE', #147, #146 ) ;
#149 = AXIS2_PLACEMENT_3D ( 'NONE', #143, #173, #172 ) ;
#150 = DIRECTION ( 'NONE',  ( -0.0000000000000000000, -1.000000000000000000, -0.0000000000000000000 ) ) ;
#151 = VECTOR ( 'NONE', #190, 1000.000000000000000 ) ;
#152 = LINE ( 'NONE', #195, #151 ) ;
#153 = CARTESIAN_POINT ( 'NONE',  ( 9.500000000000001800, 2.000000000000000000, 9.499999999999994700 ) ) ;
#154 = DIRECTION ( 'NONE',  ( 0.0000000000000000000, 0.0000000000000000000, -1.000000000000000000 ) ) ;
#155 = VECTOR ( 'NONE', #154, 1000.000000000000000 ) ;
#156 = LINE ( 'NONE', #191, #155 ) ;
#157 = AXIS2_PLACEMENT_3D ( 'NONE', #137, #136, #135 ) ;
#158 = LINE ( 'NONE', #153, #196 ) ;
#159 = CARTESIAN_POINT ( 'NONE',  ( 7.654042494670957600E-016, 0.0000000000000000000, -6.250000000000000000 ) ) ;
#160 = CARTESIAN_POINT ( 'NONE',  ( -9.499999999999998200, 2.000000000000000000, 9.499999999999994700 ) ) ;
#161 = LINE ( 'NONE', #117, #116 ) ;
#162 = CARTESIAN_POINT ( 'NONE',  ( -9.499999999999998200, 2.000000000000000000, 9.499999999999994700 ) ) ;
#163 = CARTESIAN_POINT ( 'NONE',  ( 7.654042494670957600E-016, 2.000000000000000000, -6.250000000000000000 ) ) ;
#164 = CARTESIAN_POINT ( 'NONE',  ( -9.499999999999998200, 0.0000000000000000000, 9.499999999999994700 ) ) ;
#165 = AXIS2_PLACEMENT_3D ( 'NONE', #160, #107, #106 ) ;
#166 = DIRECTION ( 'NONE',  ( -0.0000000000000000000, 1.000000000000000000, -0.0000000000000000000 ) ) ;
#167 = VECTOR ( 'NONE', #166, 1000.000000000000000 ) ;
#168 = CARTESIAN_POINT ( 'NONE',  ( 0.0000000000000000000, 0.0000000000000000000, 6.250000000000000000 ) ) ;
#169 = CARTESIAN_POINT ( 'NONE',  ( 0.0000000000000000000, 2.000000000000000000, 0.0000000000000000000 ) ) ;
#170 = CIRCLE ( 'NONE', #140, 6.250000000000000000 ) ;
#171 = CARTESIAN_POINT ( 'NONE',  ( 9.500000000000001800, 2.000000000000000000, 9.499999999999994700 ) ) ;
#172 = DIRECTION ( 'NONE',  ( -1.000000000000000000, 0.0000000000000000000, -0.0000000000000000000 ) ) ;
#173 = DIRECTION ( 'NONE',  ( 0.0000000000000000000, 0.0000000000000000000, -1.000000000000000000 ) ) ;
#174 = DIRECTION ( 'NONE',  ( 1.000000000000000000, 0.0000000000000000000, -0.0000000000000000000 ) ) ;
#175 = PLANE ( 'NONE',  #149 ) ;
#176 = CARTESIAN_POINT ( 'NONE',  ( -9.499999999999998200, 2.000000000000000000, -9.500000000000008900 ) ) ;
#177 = CIRCLE ( 'NONE', #96, 6.250000000000000000 ) ;
#178 = AXIS2_PLACEMENT_3D ( 'NONE', #176, #124, #123 ) ;
#179 = DIRECTION ( 'NONE',  ( 1.000000000000000000, -0.0000000000000000000, -0.0000000000000000000 ) ) ;
#180 = DIRECTION ( 'NONE',  ( -1.000000000000000000, 0.0000000000000000000, 0.0000000000000000000 ) ) ;
#181 = VECTOR ( 'NONE', #180, 1000.000000000000000 ) ;
#182 = CARTESIAN_POINT ( 'NONE',  ( 9.500000000000001800, 2.000000000000000000, -9.500000000000008900 ) ) ;
#183 = LINE ( 'NONE', #182, #181 ) ;
#184 = LINE ( 'NONE', #189, #197 ) ;
#185 = DIRECTION ( 'NONE',  ( 0.0000000000000000000, 0.0000000000000000000, 1.000000000000000000 ) ) ;
#186 = DIRECTION ( 'NONE',  ( 0.0000000000000000000, 1.000000000000000000, 0.0000000000000000000 ) ) ;
#187 = CARTESIAN_POINT ( 'NONE',  ( 0.0000000000000000000, 2.000000000000000000, 0.0000000000000000000 ) ) ;
#188 = DIRECTION ( 'NONE',  ( -0.0000000000000000000, -1.000000000000000000, -0.0000000000000000000 ) ) ;
#189 = CARTESIAN_POINT ( 'NONE',  ( 9.500000000000001800, 2.000000000000000000, -9.500000000000008900 ) ) ;
#190 = DIRECTION ( 'NONE',  ( -1.000000000000000000, 0.0000000000000000000, 0.0000000000000000000 ) ) ;
#191 = CARTESIAN_POINT ( 'NONE',  ( 9.500000000000001800, 2.000000000000000000, 9.499999999999994700 ) ) ;
#192 = DIRECTION ( 'NONE',  ( 0.0000000000000000000, 0.0000000000000000000, 1.000000000000000000 ) ) ;
#193 = DIRECTION ( 'NONE',  ( -0.0000000000000000000, 1.000000000000000000, -0.0000000000000000000 ) ) ;
#194 = CARTESIAN_POINT ( 'NONE',  ( 0.0000000000000000000, 0.0000000000000000000, 0.0000000000000000000 ) ) ;
#195 = CARTESIAN_POINT ( 'NONE',  ( 9.500000000000001800, 0.0000000000000000000, -9.500000000000008900 ) ) ;
#196 = VECTOR ( 'NONE', #150, 1000.000000000000000 ) ;
#197 = VECTOR ( 'NONE', #188, 1000.000000000000000 ) ;
#198 = AXIS2_PLACEMENT_3D ( 'NONE', #187, #186, #185 ) ;
#199 = VECTOR ( 'NONE', #179, 1000.000000000000000 ) ;
#200 = CIRCLE ( 'NONE', #198, 6.250000000000000000 ) ;
#201 = FACE_OUTER_BOUND ( 'NONE', #9, .T. ) ;
#202 = AXIS2_PLACEMENT_3D ( 'NONE', #259, #258, #251 ) ;
#203 = FACE_OUTER_BOUND ( 'NONE', #70, .T. ) ;
#204 = AXIS2_PLACEMENT_3D ( 'NONE', #252, #250, #249 ) ;
#205 = CC_DESIGN_APPROVAL ( #213, ( #225 ) ) ;
#206 = APPROVAL_DATE_TIME ( #207, #213 ) ;
#207 = DATE_AND_TIME ( #208, #209 ) ;
#208 = CALENDAR_DATE ( 2013, 25, 1 ) ;
#209 = LOCAL_TIME ( 9, 53, 20.00000000000000000, #210 ) ;
#210 = COORDINATED_UNIVERSAL_TIME_OFFSET ( 1, 0, .AHEAD. ) ;
#211 = APPROVAL_PERSON_ORGANIZATION ( #215, #213, #212 ) ;
#212 = APPROVAL_ROLE ( '' ) ;
#213 = APPROVAL ( #214, 'NON SPECIFICATO' ) ;
#214 = APPROVAL_STATUS ( 'not_yet_approved' ) ;
#215 = PERSON_AND_ORGANIZATION ( #243, #311 ) ;
#216 = CC_DESIGN_DATE_AND_TIME_ASSIGNMENT ( #218, #217, ( #225 ) ) ;
#217 = DATE_TIME_ROLE ( 'classification_date' ) ;
#218 = DATE_AND_TIME ( #219, #220 ) ;
#219 = CALENDAR_DATE ( 2013, 25, 1 ) ;
#220 = LOCAL_TIME ( 9, 53, 20.00000000000000000, #221 ) ;
#221 = COORDINATED_UNIVERSAL_TIME_OFFSET ( 1, 0, .AHEAD. ) ;
#222 = CC_DESIGN_PERSON_AND_ORGANIZATION_ASSIGNMENT ( #224, #223, ( #225 ) ) ;
#223 = PERSON_AND_ORGANIZATION_ROLE ( 'classification_officer' ) ;
#224 = PERSON_AND_ORGANIZATION ( #243, #311 ) ;
#225 = SECURITY_CLASSIFICATION ( '', '', #226 ) ;
#226 = SECURITY_CLASSIFICATION_LEVEL ( 'unclassified' ) ;
#227 = CC_DESIGN_PERSON_AND_ORGANIZATION_ASSIGNMENT ( #229, #228, ( #283 ) ) ;
#228 = PERSON_AND_ORGANIZATION_ROLE ( 'design_supplier' ) ;
#229 = PERSON_AND_ORGANIZATION ( #243, #311 ) ;
#230 = CC_DESIGN_PERSON_AND_ORGANIZATION_ASSIGNMENT ( #232, #231, ( #283 ) ) ;
#231 = PERSON_AND_ORGANIZATION_ROLE ( 'creator' ) ;
#232 = PERSON_AND_ORGANIZATION ( #243, #311 ) ;
#233 = CC_DESIGN_APPROVAL ( #280, ( #283 ) ) ;
#234 = APPROVAL_DATE_TIME ( #235, #280 ) ;
#235 = DATE_AND_TIME ( #236, #237 ) ;
#236 = CALENDAR_DATE ( 2013, 25, 1 ) ;
#237 = LOCAL_TIME ( 9, 53, 20.00000000000000000, #238 ) ;
#238 = COORDINATED_UNIVERSAL_TIME_OFFSET ( 1, 0, .AHEAD. ) ;
#239 = APPROVAL_PERSON_ORGANIZATION ( #282, #280, #279 ) ;
#240 = PRODUCT_DEFINITION_SHAPE ( 'NONE', 'NONE',  #304 ) ;
#241 = PRODUCT_RELATED_PRODUCT_CATEGORY ( 'detail', '', ( #244 ) ) ;
#242 = CC_DESIGN_SECURITY_CLASSIFICATION ( #225, ( #283 ) ) ;
#243 = PERSON ( 'NON SPECIFICATO', 'NON SPECIFICATO', 'NON SPECIFICATO', ('NON SPECIFICATO'), ('NON SPECIFICATO'), ('NON SPECIFICATO') ) ;
#244 = PRODUCT ( '084.303.004', '084.303.004', '', ( #245 ) ) ;
#245 = MECHANICAL_CONTEXT ( 'NONE', #273, 'mechanical' ) ;
#246 = APPLICATION_PROTOCOL_DEFINITION ( 'international standard', 'config_control_design', 1994, #273 ) ;
#247 =( LENGTH_UNIT ( ) NAMED_UNIT ( * ) SI_UNIT ( .MILLI., .METRE. ) );
#248 = CARTESIAN_POINT ( 'NONE',  ( 0.0000000000000000000, 0.0000000000000000000, 0.0000000000000000000 ) ) ;
#249 = DIRECTION ( 'NONE',  ( 0.0000000000000000000, 0.0000000000000000000, 1.000000000000000000 ) ) ;
#250 = DIRECTION ( 'NONE',  ( 0.0000000000000000000, 1.000000000000000000, 0.0000000000000000000 ) ) ;
#251 = DIRECTION ( 'NONE',  ( 0.0000000000000000000, 0.0000000000000000000, 1.000000000000000000 ) ) ;
#252 = CARTESIAN_POINT ( 'NONE',  ( 0.0000000000000000000, 0.0000000000000000000, 0.0000000000000000000 ) ) ;
#253 = CIRCLE ( 'NONE', #204, 6.250000000000000000 ) ;
#254 = CYLINDRICAL_SURFACE ( 'NONE', #202, 6.250000000000000000 ) ;
#255 = DIRECTION ( 'NONE',  ( -0.0000000000000000000, -0.0000000000000000000, 1.000000000000000000 ) ) ;
#256 = VECTOR ( 'NONE', #255, 1000.000000000000000 ) ;
#257 = CARTESIAN_POINT ( 'NONE',  ( -9.499999999999998200, 0.0000000000000000000, 9.499999999999994700 ) ) ;
#258 = DIRECTION ( 'NONE',  ( -0.0000000000000000000, 1.000000000000000000, -0.0000000000000000000 ) ) ;
#259 = CARTESIAN_POINT ( 'NONE',  ( 0.0000000000000000000, 0.0000000000000000000, 0.0000000000000000000 ) ) ;
#260 = LINE ( 'NONE', #257, #256 ) ;
#261 = DIRECTION ( 'NONE',  ( 0.0000000000000000000, 0.0000000000000000000, -1.000000000000000000 ) ) ;
#262 = VECTOR ( 'NONE', #261, 1000.000000000000000 ) ;
#263 = LINE ( 'NONE', #264, #262 ) ;
#264 = CARTESIAN_POINT ( 'NONE',  ( 9.500000000000001800, 0.0000000000000000000, 9.499999999999994700 ) ) ;
#265 = DIRECTION ( 'NONE',  ( -0.0000000000000000000, -0.0000000000000000000, 1.000000000000000000 ) ) ;
#266 = VECTOR ( 'NONE', #265, 1000.000000000000000 ) ;
#267 = CARTESIAN_POINT ( 'NONE',  ( -9.499999999999998200, 2.000000000000000000, 9.499999999999994700 ) ) ;
#268 = LINE ( 'NONE', #267, #266 ) ;
#269 = SHAPE_DEFINITION_REPRESENTATION ( #240, #274 ) ;
#270 = DIRECTION ( 'NONE',  ( 1.000000000000000000, 0.0000000000000000000, 0.0000000000000000000 ) ) ;
#271 = AXIS2_PLACEMENT_3D ( 'NONE', #248, #272, #270 ) ;
#272 = DIRECTION ( 'NONE',  ( 0.0000000000000000000, 0.0000000000000000000, 1.000000000000000000 ) ) ;
#273 = APPLICATION_CONTEXT ( 'configuration controlled 3d designs of mechanical parts and assemblies' ) ;
#274 = ADVANCED_BREP_SHAPE_REPRESENTATION ( '084.303.004', ( #85, #271 ), #275 ) ;
#275 =( GEOMETRIC_REPRESENTATION_CONTEXT ( 3 ) GLOBAL_UNCERTAINTY_ASSIGNED_CONTEXT ( ( #276 ) ) GLOBAL_UNIT_ASSIGNED_CONTEXT ( ( #247, #278, #277 ) ) REPRESENTATION_CONTEXT ( 'NONE', 'WORKASPACE' ) );
#276 = UNCERTAINTY_MEASURE_WITH_UNIT (LENGTH_MEASURE( 1.000000000000000100E-005 ), #247, 'distance_accuracy_value', 'NONE');
#277 =( NAMED_UNIT ( * ) SI_UNIT ( $, .STERADIAN. ) SOLID_ANGLE_UNIT ( ) );
#278 =( NAMED_UNIT ( * ) PLANE_ANGLE_UNIT ( ) SI_UNIT ( $, .RADIAN. ) );
#279 = APPROVAL_ROLE ( '' ) ;
#280 = APPROVAL ( #281, 'NON SPECIFICATO' ) ;
#281 = APPROVAL_STATUS ( 'not_yet_approved' ) ;
#282 = PERSON_AND_ORGANIZATION ( #243, #311 ) ;
#283 = PRODUCT_DEFINITION_FORMATION_WITH_SPECIFIED_SOURCE ( 'TUTTO', '', #244, .NOT_KNOWN. ) ;
#284 = CC_DESIGN_DATE_AND_TIME_ASSIGNMENT ( #286, #285, ( #304 ) ) ;
#285 = DATE_TIME_ROLE ( 'creation_date' ) ;
#286 = DATE_AND_TIME ( #287, #288 ) ;
#287 = CALENDAR_DATE ( 2013, 25, 1 ) ;
#288 = LOCAL_TIME ( 9, 53, 20.00000000000000000, #289 ) ;
#289 = COORDINATED_UNIVERSAL_TIME_OFFSET ( 1, 0, .AHEAD. ) ;
#290 = CC_DESIGN_PERSON_AND_ORGANIZATION_ASSIGNMENT ( #292, #291, ( #304 ) ) ;
#291 = PERSON_AND_ORGANIZATION_ROLE ( 'creator' ) ;
#292 = PERSON_AND_ORGANIZATION ( #243, #311 ) ;
#293 = CC_DESIGN_APPROVAL ( #301, ( #304 ) ) ;
#294 = APPROVAL_DATE_TIME ( #295, #301 ) ;
#295 = DATE_AND_TIME ( #296, #297 ) ;
#296 = CALENDAR_DATE ( 2013, 25, 1 ) ;
#297 = LOCAL_TIME ( 9, 53, 20.00000000000000000, #298 ) ;
#298 = COORDINATED_UNIVERSAL_TIME_OFFSET ( 1, 0, .AHEAD. ) ;
#299 = APPROVAL_PERSON_ORGANIZATION ( #303, #301, #300 ) ;
#300 = APPROVAL_ROLE ( '' ) ;
#301 = APPROVAL ( #302, 'NON SPECIFICATO' ) ;
#302 = APPROVAL_STATUS ( 'not_yet_approved' ) ;
#303 = PERSON_AND_ORGANIZATION ( #243, #311 ) ;
#304 = PRODUCT_DEFINITION ( 'NON CONOSCIUTO', '', #283, #305 ) ;
#305 = DESIGN_CONTEXT ( 'detailed design', #307, 'design' ) ;
#306 = APPLICATION_PROTOCOL_DEFINITION ( 'international standard', 'config_control_design', 1994, #307 ) ;
#307 = APPLICATION_CONTEXT ( 'configuration controlled 3d designs of mechanical parts and assemblies' ) ;
#308 = CC_DESIGN_PERSON_AND_ORGANIZATION_ASSIGNMENT ( #310, #309, ( #244 ) ) ;
#309 = PERSON_AND_ORGANIZATION_ROLE ( 'design_owner' ) ;
#310 = PERSON_AND_ORGANIZATION ( #243, #311 ) ;
#311 = ORGANIZATION ( 'NON SPECIFICATO', 'NON SPECIFICATO', '' ) ;
ENDSEC;
END-ISO-10303-21;
