ISO-10303-21;
HEADER;
FILE_DESCRIPTION (( 'STEP AP203' ),
    '1' );
FILE_NAME ('084.303.003.STEP',
    '2013-01-25T08:52:08',
    ( 'Alusic' ),
    ( 'Alusic' ),
    'SwSTEP 2.0',
    'SolidWorks 2011',
    '' );
FILE_SCHEMA (( 'CONFIG_CONTROL_DESIGN' ));
ENDSEC;

DATA;
#1 = EDGE_CURVE ( 'NONE', #8, #15, #159, .T. ) ;
#2 = EDGE_LOOP ( 'NONE', ( #3, #72, #76, #140 ) ) ;
#3 = ORIENTED_EDGE ( 'NONE', *, *, #74, .T. ) ;
#4 = ORIENTED_EDGE ( 'NONE', *, *, #7, .T. ) ;
#5 = ORIENTED_EDGE ( 'NONE', *, *, #83, .F. ) ;
#6 = EDGE_CURVE ( 'NONE', #9, #12, #163, .T. ) ;
#7 = EDGE_CURVE ( 'NONE', #8, #9, #11, .T. ) ;
#8 = VERTEX_POINT ( 'NONE', #153 ) ;
#9 = VERTEX_POINT ( 'NONE', #147 ) ;
#10 = CARTESIAN_POINT ( 'NONE',  ( -5.000000000000000000, 2.000000000000000000, -4.999999999999999100 ) ) ;
#11 = CIRCLE ( 'NONE', #59, 3.100000000000000500 ) ;
#12 = VERTEX_POINT ( 'NONE', #152 ) ;
#13 = VERTEX_POINT ( 'NONE', #10 ) ;
#14 = ADVANCED_FACE ( 'NONE', ( #145 ), #37, .F. ) ;
#15 = VERTEX_POINT ( 'NONE', #142 ) ;
#16 = EDGE_LOOP ( 'NONE', ( #4, #82, #5, #81 ) ) ;
#17 = ORIENTED_EDGE ( 'NONE', *, *, #164, .T. ) ;
#18 = ADVANCED_FACE ( 'NONE', ( #151 ), #137, .F. ) ;
#19 = ORIENTED_EDGE ( 'NONE', *, *, #38, .T. ) ;
#20 = ORIENTED_EDGE ( 'NONE', *, *, #78, .F. ) ;
#21 = EDGE_CURVE ( 'NONE', #32, #34, #138, .T. ) ;
#22 = ORIENTED_EDGE ( 'NONE', *, *, #83, .T. ) ;
#23 = EDGE_LOOP ( 'NONE', ( #19, #20, #40, #17 ) ) ;
#24 = EDGE_LOOP ( 'NONE', ( #22, #25 ) ) ;
#25 = ORIENTED_EDGE ( 'NONE', *, *, #26, .T. ) ;
#26 = EDGE_CURVE ( 'NONE', #12, #15, #139, .T. ) ;
#27 = EDGE_CURVE ( 'NONE', #31, #32, #121, .T. ) ;
#28 = EDGE_CURVE ( 'NONE', #33, #31, #117, .T. ) ;
#29 = ORIENTED_EDGE ( 'NONE', *, *, #28, .F. ) ;
#30 = ORIENTED_EDGE ( 'NONE', *, *, #27, .F. ) ;
#31 = VERTEX_POINT ( 'NONE', #143 ) ;
#32 = VERTEX_POINT ( 'NONE', #112 ) ;
#33 = VERTEX_POINT ( 'NONE', #110 ) ;
#34 = VERTEX_POINT ( 'NONE', #122 ) ;
#35 = ORIENTED_EDGE ( 'NONE', *, *, #38, .F. ) ;
#36 = MANIFOLD_SOLID_BREP ( 'Estrusione1', #47 ) ;
#37 = CYLINDRICAL_SURFACE ( 'NONE', #146, 3.100000000000000500 ) ;
#38 = EDGE_CURVE ( 'NONE', #34, #33, #111, .T. ) ;
#39 = EDGE_CURVE ( 'NONE', #9, #8, #107, .T. ) ;
#40 = ORIENTED_EDGE ( 'NONE', *, *, #74, .F. ) ;
#41 = EDGE_LOOP ( 'NONE', ( #35, #141, #30, #29 ) ) ;
#42 = ADVANCED_FACE ( 'NONE', ( #109, #118 ), #108, .T. ) ;
#43 = ORIENTED_EDGE ( 'NONE', *, *, #39, .F. ) ;
#44 = EDGE_LOOP ( 'NONE', ( #46, #43 ) ) ;
#45 = EDGE_CURVE ( 'NONE', #75, #13, #100, .T. ) ;
#46 = ORIENTED_EDGE ( 'NONE', *, *, #7, .F. ) ;
#47 = CLOSED_SHELL ( 'NONE', ( #14, #71, #42, #18, #48, #57, #66, #55 ) ) ;
#48 = ADVANCED_FACE ( 'NONE', ( #101 ), #106, .F. ) ;
#49 = ORIENTED_EDGE ( 'NONE', *, *, #28, .T. ) ;
#50 = ORIENTED_EDGE ( 'NONE', *, *, #27, .T. ) ;
#51 = ORIENTED_EDGE ( 'NONE', *, *, #167, .F. ) ;
#52 = ORIENTED_EDGE ( 'NONE', *, *, #78, .T. ) ;
#53 = ORIENTED_EDGE ( 'NONE', *, *, #73, .F. ) ;
#54 = ORIENTED_EDGE ( 'NONE', *, *, #168, .F. ) ;
#55 = ADVANCED_FACE ( 'NONE', ( #90 ), #91, .F. ) ;
#56 = ORIENTED_EDGE ( 'NONE', *, *, #1, .T. ) ;
#57 = ADVANCED_FACE ( 'NONE', ( #172 ), #211, .F. ) ;
#58 = DIRECTION ( 'NONE',  ( -0.0000000000000000000, -1.000000000000000000, -0.0000000000000000000 ) ) ;
#59 = AXIS2_PLACEMENT_3D ( 'NONE', #155, #150, #149 ) ;
#60 = ORIENTED_EDGE ( 'NONE', *, *, #21, .T. ) ;
#61 = ORIENTED_EDGE ( 'NONE', *, *, #77, .F. ) ;
#62 = ORIENTED_EDGE ( 'NONE', *, *, #164, .F. ) ;
#63 = EDGE_LOOP ( 'NONE', ( #60, #62, #68, #64 ) ) ;
#64 = ORIENTED_EDGE ( 'NONE', *, *, #168, .T. ) ;
#65 = ORIENTED_EDGE ( 'NONE', *, *, #167, .T. ) ;
#66 = ADVANCED_FACE ( 'NONE', ( #212 ), #208, .F. ) ;
#67 = ORIENTED_EDGE ( 'NONE', *, *, #6, .F. ) ;
#68 = ORIENTED_EDGE ( 'NONE', *, *, #45, .F. ) ;
#69 = ORIENTED_EDGE ( 'NONE', *, *, #39, .T. ) ;
#70 = ORIENTED_EDGE ( 'NONE', *, *, #26, .F. ) ;
#71 = ADVANCED_FACE ( 'NONE', ( #210, #237 ), #241, .F. ) ;
#72 = ORIENTED_EDGE ( 'NONE', *, *, #73, .T. ) ;
#73 = EDGE_CURVE ( 'NONE', #80, #79, #233, .T. ) ;
#74 = EDGE_CURVE ( 'NONE', #13, #80, #228, .T. ) ;
#75 = VERTEX_POINT ( 'NONE', #227 ) ;
#76 = ORIENTED_EDGE ( 'NONE', *, *, #77, .T. ) ;
#77 = EDGE_CURVE ( 'NONE', #79, #75, #223, .T. ) ;
#78 = EDGE_CURVE ( 'NONE', #80, #33, #219, .T. ) ;
#79 = VERTEX_POINT ( 'NONE', #242 ) ;
#80 = VERTEX_POINT ( 'NONE', #234 ) ;
#81 = ORIENTED_EDGE ( 'NONE', *, *, #1, .F. ) ;
#82 = ORIENTED_EDGE ( 'NONE', *, *, #6, .T. ) ;
#83 = EDGE_CURVE ( 'NONE', #15, #12, #305, .T. ) ;
#84 = DIRECTION ( 'NONE',  ( 0.0000000000000000000, 0.0000000000000000000, -1.000000000000000000 ) ) ;
#85 = DIRECTION ( 'NONE',  ( -0.0000000000000000000, -1.000000000000000000, -0.0000000000000000000 ) ) ;
#86 = CARTESIAN_POINT ( 'NONE',  ( 0.0000000000000000000, 2.000000000000000000, 0.0000000000000000000 ) ) ;
#87 = DIRECTION ( 'NONE',  ( -1.000000000000000000, 0.0000000000000000000, -0.0000000000000000000 ) ) ;
#88 = DIRECTION ( 'NONE',  ( 0.0000000000000000000, 0.0000000000000000000, -1.000000000000000000 ) ) ;
#89 = CARTESIAN_POINT ( 'NONE',  ( -5.000000000000000000, 2.000000000000000000, 5.000000000000000900 ) ) ;
#90 = FACE_OUTER_BOUND ( 'NONE', #165, .T. ) ;
#91 = CYLINDRICAL_SURFACE ( 'NONE', #95, 3.100000000000000500 ) ;
#92 = AXIS2_PLACEMENT_3D ( 'NONE', #89, #88, #87 ) ;
#93 = DIRECTION ( 'NONE',  ( -1.000000000000000000, -0.0000000000000000000, -0.0000000000000000000 ) ) ;
#94 = VECTOR ( 'NONE', #93, 1000.000000000000000 ) ;
#95 = AXIS2_PLACEMENT_3D ( 'NONE', #86, #85, #84 ) ;
#96 = DIRECTION ( 'NONE',  ( 0.0000000000000000000, -0.0000000000000000000, -1.000000000000000000 ) ) ;
#97 = DIRECTION ( 'NONE',  ( 0.0000000000000000000, -1.000000000000000000, 0.0000000000000000000 ) ) ;
#98 = CARTESIAN_POINT ( 'NONE',  ( -5.000000000000000000, 0.0000000000000000000, -4.999999999999999100 ) ) ;
#99 = CARTESIAN_POINT ( 'NONE',  ( -5.000000000000000000, 2.000000000000000000, -4.999999999999999100 ) ) ;
#100 = LINE ( 'NONE', #99, #94 ) ;
#101 = FACE_OUTER_BOUND ( 'NONE', #169, .T. ) ;
#102 = DIRECTION ( 'NONE',  ( 0.0000000000000000000, 0.0000000000000000000, 1.000000000000000000 ) ) ;
#103 = DIRECTION ( 'NONE',  ( 0.0000000000000000000, 1.000000000000000000, 0.0000000000000000000 ) ) ;
#104 = AXIS2_PLACEMENT_3D ( 'NONE', #98, #97, #96 ) ;
#105 = VECTOR ( 'NONE', #130, 1000.000000000000000 ) ;
#106 = PLANE ( 'NONE',  #92 ) ;
#107 = CIRCLE ( 'NONE', #136, 3.100000000000000500 ) ;
#108 = PLANE ( 'NONE',  #104 ) ;
#109 = FACE_OUTER_BOUND ( 'NONE', #41, .T. ) ;
#110 = CARTESIAN_POINT ( 'NONE',  ( -5.000000000000000000, 0.0000000000000000000, 5.000000000000000900 ) ) ;
#111 = LINE ( 'NONE', #131, #105 ) ;
#112 = CARTESIAN_POINT ( 'NONE',  ( 5.000000000000000000, 0.0000000000000000000, -4.999999999999999100 ) ) ;
#113 = CARTESIAN_POINT ( 'NONE',  ( 0.0000000000000000000, 2.000000000000000000, 0.0000000000000000000 ) ) ;
#114 = DIRECTION ( 'NONE',  ( 1.000000000000000000, 0.0000000000000000000, 0.0000000000000000000 ) ) ;
#115 = VECTOR ( 'NONE', #114, 1000.000000000000000 ) ;
#116 = CARTESIAN_POINT ( 'NONE',  ( -5.000000000000000000, 0.0000000000000000000, 5.000000000000000900 ) ) ;
#117 = LINE ( 'NONE', #116, #115 ) ;
#118 = FACE_BOUND ( 'NONE', #24, .T. ) ;
#119 = DIRECTION ( 'NONE',  ( 0.0000000000000000000, 0.0000000000000000000, -1.000000000000000000 ) ) ;
#120 = VECTOR ( 'NONE', #119, 1000.000000000000000 ) ;
#121 = LINE ( 'NONE', #148, #120 ) ;
#122 = CARTESIAN_POINT ( 'NONE',  ( -5.000000000000000000, 0.0000000000000000000, -4.999999999999999100 ) ) ;
#123 = DIRECTION ( 'NONE',  ( 0.0000000000000000000, 0.0000000000000000000, 1.000000000000000000 ) ) ;
#124 = DIRECTION ( 'NONE',  ( 0.0000000000000000000, 1.000000000000000000, 0.0000000000000000000 ) ) ;
#125 = CARTESIAN_POINT ( 'NONE',  ( 0.0000000000000000000, 0.0000000000000000000, 0.0000000000000000000 ) ) ;
#126 = AXIS2_PLACEMENT_3D ( 'NONE', #125, #124, #123 ) ;
#127 = DIRECTION ( 'NONE',  ( -1.000000000000000000, -0.0000000000000000000, -0.0000000000000000000 ) ) ;
#128 = VECTOR ( 'NONE', #127, 1000.000000000000000 ) ;
#129 = CARTESIAN_POINT ( 'NONE',  ( -5.000000000000000000, 0.0000000000000000000, -4.999999999999999100 ) ) ;
#130 = DIRECTION ( 'NONE',  ( -0.0000000000000000000, -0.0000000000000000000, 1.000000000000000000 ) ) ;
#131 = CARTESIAN_POINT ( 'NONE',  ( -5.000000000000000000, 0.0000000000000000000, 5.000000000000000900 ) ) ;
#132 = DIRECTION ( 'NONE',  ( 0.0000000000000000000, 0.0000000000000000000, -1.000000000000000000 ) ) ;
#133 = DIRECTION ( 'NONE',  ( 1.000000000000000000, -0.0000000000000000000, 0.0000000000000000000 ) ) ;
#134 = CARTESIAN_POINT ( 'NONE',  ( -5.000000000000000000, 2.000000000000000000, 5.000000000000000900 ) ) ;
#135 = AXIS2_PLACEMENT_3D ( 'NONE', #134, #133, #132 ) ;
#136 = AXIS2_PLACEMENT_3D ( 'NONE', #113, #103, #102 ) ;
#137 = PLANE ( 'NONE',  #135 ) ;
#138 = LINE ( 'NONE', #129, #128 ) ;
#139 = CIRCLE ( 'NONE', #126, 3.100000000000000500 ) ;
#140 = ORIENTED_EDGE ( 'NONE', *, *, #45, .T. ) ;
#141 = ORIENTED_EDGE ( 'NONE', *, *, #21, .F. ) ;
#142 = CARTESIAN_POINT ( 'NONE',  ( 0.0000000000000000000, 0.0000000000000000000, -3.100000000000000500 ) ) ;
#143 = CARTESIAN_POINT ( 'NONE',  ( 5.000000000000000000, 0.0000000000000000000, 5.000000000000000900 ) ) ;
#144 = DIRECTION ( 'NONE',  ( 0.0000000000000000000, 0.0000000000000000000, -1.000000000000000000 ) ) ;
#145 = FACE_OUTER_BOUND ( 'NONE', #16, .T. ) ;
#146 = AXIS2_PLACEMENT_3D ( 'NONE', #154, #58, #144 ) ;
#147 = CARTESIAN_POINT ( 'NONE',  ( 3.796405077356795400E-016, 2.000000000000000000, 3.100000000000000500 ) ) ;
#148 = CARTESIAN_POINT ( 'NONE',  ( 5.000000000000000000, 0.0000000000000000000, 5.000000000000000900 ) ) ;
#149 = DIRECTION ( 'NONE',  ( 0.0000000000000000000, 0.0000000000000000000, 1.000000000000000000 ) ) ;
#150 = DIRECTION ( 'NONE',  ( 0.0000000000000000000, 1.000000000000000000, 0.0000000000000000000 ) ) ;
#151 = FACE_OUTER_BOUND ( 'NONE', #23, .T. ) ;
#152 = CARTESIAN_POINT ( 'NONE',  ( 3.796405077356795400E-016, 0.0000000000000000000, 3.100000000000000500 ) ) ;
#153 = CARTESIAN_POINT ( 'NONE',  ( 0.0000000000000000000, 2.000000000000000000, -3.100000000000000500 ) ) ;
#154 = CARTESIAN_POINT ( 'NONE',  ( 0.0000000000000000000, 2.000000000000000000, 0.0000000000000000000 ) ) ;
#155 = CARTESIAN_POINT ( 'NONE',  ( 0.0000000000000000000, 2.000000000000000000, 0.0000000000000000000 ) ) ;
#156 = DIRECTION ( 'NONE',  ( -0.0000000000000000000, -1.000000000000000000, -0.0000000000000000000 ) ) ;
#157 = VECTOR ( 'NONE', #156, 1000.000000000000000 ) ;
#158 = CARTESIAN_POINT ( 'NONE',  ( 0.0000000000000000000, 2.000000000000000000, -3.100000000000000500 ) ) ;
#159 = LINE ( 'NONE', #158, #157 ) ;
#160 = DIRECTION ( 'NONE',  ( -0.0000000000000000000, -1.000000000000000000, -0.0000000000000000000 ) ) ;
#161 = VECTOR ( 'NONE', #160, 1000.000000000000000 ) ;
#162 = CARTESIAN_POINT ( 'NONE',  ( 3.796405077356795400E-016, 2.000000000000000000, 3.100000000000000500 ) ) ;
#163 = LINE ( 'NONE', #162, #161 ) ;
#164 = EDGE_CURVE ( 'NONE', #13, #34, #300, .T. ) ;
#165 = EDGE_LOOP ( 'NONE', ( #67, #69, #56, #70 ) ) ;
#166 = EDGE_LOOP ( 'NONE', ( #50, #54, #61, #65 ) ) ;
#167 = EDGE_CURVE ( 'NONE', #79, #31, #296, .T. ) ;
#168 = EDGE_CURVE ( 'NONE', #75, #32, #292, .T. ) ;
#169 = EDGE_LOOP ( 'NONE', ( #49, #51, #53, #52 ) ) ;
#170 = CARTESIAN_POINT ( 'NONE',  ( 5.000000000000000000, 2.000000000000000000, 5.000000000000000900 ) ) ;
#171 = DIRECTION ( 'NONE',  ( -1.000000000000000000, 0.0000000000000000000, 0.0000000000000000000 ) ) ;
#172 = FACE_OUTER_BOUND ( 'NONE', #166, .T. ) ;
#173 = DIRECTION ( 'NONE',  ( 0.0000000000000000000, -1.000000000000000000, 0.0000000000000000000 ) ) ;
#174 = PERSON ( 'NON SPECIFICATO', 'NON SPECIFICATO', 'NON SPECIFICATO', ('NON SPECIFICATO'), ('NON SPECIFICATO'), ('NON SPECIFICATO') ) ;
#175 = PRODUCT ( '084.303.003', '084.303.003', '', ( #176 ) ) ;
#176 = MECHANICAL_CONTEXT ( 'NONE', #309, 'mechanical' ) ;
#177 = PRODUCT_DEFINITION_SHAPE ( 'NONE', 'NONE',  #277 ) ;
#178 = PRODUCT_RELATED_PRODUCT_CATEGORY ( 'detail', '', ( #175 ) ) ;
#179 = CC_DESIGN_SECURITY_CLASSIFICATION ( #200, ( #255 ) ) ;
#180 = CC_DESIGN_APPROVAL ( #188, ( #200 ) ) ;
#181 = APPROVAL_DATE_TIME ( #182, #188 ) ;
#182 = DATE_AND_TIME ( #183, #184 ) ;
#183 = CALENDAR_DATE ( 2013, 25, 1 ) ;
#184 = LOCAL_TIME ( 9, 52, 8.000000000000000000, #185 ) ;
#185 = COORDINATED_UNIVERSAL_TIME_OFFSET ( 1, 0, .AHEAD. ) ;
#186 = APPROVAL_PERSON_ORGANIZATION ( #190, #188, #187 ) ;
#187 = APPROVAL_ROLE ( '' ) ;
#188 = APPROVAL ( #189, 'NON SPECIFICATO' ) ;
#189 = APPROVAL_STATUS ( 'not_yet_approved' ) ;
#190 = PERSON_AND_ORGANIZATION ( #174, #284 ) ;
#191 = CC_DESIGN_DATE_AND_TIME_ASSIGNMENT ( #193, #192, ( #200 ) ) ;
#192 = DATE_TIME_ROLE ( 'classification_date' ) ;
#193 = DATE_AND_TIME ( #194, #195 ) ;
#194 = CALENDAR_DATE ( 2013, 25, 1 ) ;
#195 = LOCAL_TIME ( 9, 52, 8.000000000000000000, #196 ) ;
#196 = COORDINATED_UNIVERSAL_TIME_OFFSET ( 1, 0, .AHEAD. ) ;
#197 = CC_DESIGN_PERSON_AND_ORGANIZATION_ASSIGNMENT ( #199, #198, ( #200 ) ) ;
#198 = PERSON_AND_ORGANIZATION_ROLE ( 'classification_officer' ) ;
#199 = PERSON_AND_ORGANIZATION ( #174, #284 ) ;
#200 = SECURITY_CLASSIFICATION ( '', '', #201 ) ;
#201 = SECURITY_CLASSIFICATION_LEVEL ( 'unclassified' ) ;
#202 = CC_DESIGN_PERSON_AND_ORGANIZATION_ASSIGNMENT ( #204, #203, ( #255 ) ) ;
#203 = PERSON_AND_ORGANIZATION_ROLE ( 'design_supplier' ) ;
#204 = PERSON_AND_ORGANIZATION ( #174, #284 ) ;
#205 = CC_DESIGN_PERSON_AND_ORGANIZATION_ASSIGNMENT ( #207, #206, ( #255 ) ) ;
#206 = PERSON_AND_ORGANIZATION_ROLE ( 'creator' ) ;
#207 = PERSON_AND_ORGANIZATION ( #174, #284 ) ;
#208 = PLANE ( 'NONE',  #214 ) ;
#209 = AXIS2_PLACEMENT_3D ( 'NONE', #170, #171, #243 ) ;
#210 = FACE_OUTER_BOUND ( 'NONE', #2, .T. ) ;
#211 = PLANE ( 'NONE',  #209 ) ;
#212 = FACE_OUTER_BOUND ( 'NONE', #63, .T. ) ;
#213 = AXIS2_PLACEMENT_3D ( 'NONE', #215, #173, #231 ) ;
#214 = AXIS2_PLACEMENT_3D ( 'NONE', #240, #239, #238 ) ;
#215 = CARTESIAN_POINT ( 'NONE',  ( -5.000000000000000000, 2.000000000000000000, -4.999999999999999100 ) ) ;
#216 = DIRECTION ( 'NONE',  ( -0.0000000000000000000, -1.000000000000000000, -0.0000000000000000000 ) ) ;
#217 = VECTOR ( 'NONE', #216, 1000.000000000000000 ) ;
#218 = CARTESIAN_POINT ( 'NONE',  ( -5.000000000000000000, 2.000000000000000000, 5.000000000000000900 ) ) ;
#219 = LINE ( 'NONE', #218, #217 ) ;
#220 = DIRECTION ( 'NONE',  ( 0.0000000000000000000, 0.0000000000000000000, -1.000000000000000000 ) ) ;
#221 = VECTOR ( 'NONE', #220, 1000.000000000000000 ) ;
#222 = CARTESIAN_POINT ( 'NONE',  ( 5.000000000000000000, 2.000000000000000000, 5.000000000000000900 ) ) ;
#223 = LINE ( 'NONE', #222, #221 ) ;
#224 = DIRECTION ( 'NONE',  ( -0.0000000000000000000, -0.0000000000000000000, 1.000000000000000000 ) ) ;
#225 = VECTOR ( 'NONE', #224, 1000.000000000000000 ) ;
#226 = CARTESIAN_POINT ( 'NONE',  ( -5.000000000000000000, 2.000000000000000000, 5.000000000000000900 ) ) ;
#227 = CARTESIAN_POINT ( 'NONE',  ( 5.000000000000000000, 2.000000000000000000, -4.999999999999999100 ) ) ;
#228 = LINE ( 'NONE', #226, #225 ) ;
#229 = DIRECTION ( 'NONE',  ( 1.000000000000000000, 0.0000000000000000000, 0.0000000000000000000 ) ) ;
#230 = VECTOR ( 'NONE', #229, 1000.000000000000000 ) ;
#231 = DIRECTION ( 'NONE',  ( 0.0000000000000000000, -0.0000000000000000000, -1.000000000000000000 ) ) ;
#232 = CARTESIAN_POINT ( 'NONE',  ( -5.000000000000000000, 2.000000000000000000, 5.000000000000000900 ) ) ;
#233 = LINE ( 'NONE', #232, #230 ) ;
#234 = CARTESIAN_POINT ( 'NONE',  ( -5.000000000000000000, 2.000000000000000000, 5.000000000000000900 ) ) ;
#235 = DIRECTION ( 'NONE',  ( -0.0000000000000000000, -1.000000000000000000, -0.0000000000000000000 ) ) ;
#236 = CARTESIAN_POINT ( 'NONE',  ( -5.000000000000000000, 2.000000000000000000, -4.999999999999999100 ) ) ;
#237 = FACE_BOUND ( 'NONE', #44, .T. ) ;
#238 = DIRECTION ( 'NONE',  ( 1.000000000000000000, 0.0000000000000000000, -0.0000000000000000000 ) ) ;
#239 = DIRECTION ( 'NONE',  ( 0.0000000000000000000, 0.0000000000000000000, 1.000000000000000000 ) ) ;
#240 = CARTESIAN_POINT ( 'NONE',  ( -5.000000000000000000, 2.000000000000000000, -4.999999999999999100 ) ) ;
#241 = PLANE ( 'NONE',  #213 ) ;
#242 = CARTESIAN_POINT ( 'NONE',  ( 5.000000000000000000, 2.000000000000000000, 5.000000000000000900 ) ) ;
#243 = DIRECTION ( 'NONE',  ( 0.0000000000000000000, 0.0000000000000000000, 1.000000000000000000 ) ) ;
#244 = CC_DESIGN_APPROVAL ( #252, ( #255 ) ) ;
#245 = APPROVAL_DATE_TIME ( #246, #252 ) ;
#246 = DATE_AND_TIME ( #247, #248 ) ;
#247 = CALENDAR_DATE ( 2013, 25, 1 ) ;
#248 = LOCAL_TIME ( 9, 52, 8.000000000000000000, #249 ) ;
#249 = COORDINATED_UNIVERSAL_TIME_OFFSET ( 1, 0, .AHEAD. ) ;
#250 = APPROVAL_PERSON_ORGANIZATION ( #254, #252, #251 ) ;
#251 = APPROVAL_ROLE ( '' ) ;
#252 = APPROVAL ( #253, 'NON SPECIFICATO' ) ;
#253 = APPROVAL_STATUS ( 'not_yet_approved' ) ;
#254 = PERSON_AND_ORGANIZATION ( #174, #284 ) ;
#255 = PRODUCT_DEFINITION_FORMATION_WITH_SPECIFIED_SOURCE ( 'TUTTO', '', #175, .NOT_KNOWN. ) ;
#256 = SHAPE_DEFINITION_REPRESENTATION ( #177, #310 ) ;
#257 = CC_DESIGN_DATE_AND_TIME_ASSIGNMENT ( #259, #258, ( #277 ) ) ;
#258 = DATE_TIME_ROLE ( 'creation_date' ) ;
#259 = DATE_AND_TIME ( #260, #261 ) ;
#260 = CALENDAR_DATE ( 2013, 25, 1 ) ;
#261 = LOCAL_TIME ( 9, 52, 8.000000000000000000, #262 ) ;
#262 = COORDINATED_UNIVERSAL_TIME_OFFSET ( 1, 0, .AHEAD. ) ;
#263 = CC_DESIGN_PERSON_AND_ORGANIZATION_ASSIGNMENT ( #265, #264, ( #277 ) ) ;
#264 = PERSON_AND_ORGANIZATION_ROLE ( 'creator' ) ;
#265 = PERSON_AND_ORGANIZATION ( #174, #284 ) ;
#266 = CC_DESIGN_APPROVAL ( #274, ( #277 ) ) ;
#267 = APPROVAL_DATE_TIME ( #268, #274 ) ;
#268 = DATE_AND_TIME ( #269, #270 ) ;
#269 = CALENDAR_DATE ( 2013, 25, 1 ) ;
#270 = LOCAL_TIME ( 9, 52, 8.000000000000000000, #271 ) ;
#271 = COORDINATED_UNIVERSAL_TIME_OFFSET ( 1, 0, .AHEAD. ) ;
#272 = APPROVAL_PERSON_ORGANIZATION ( #276, #274, #273 ) ;
#273 = APPROVAL_ROLE ( '' ) ;
#274 = APPROVAL ( #275, 'NON SPECIFICATO' ) ;
#275 = APPROVAL_STATUS ( 'not_yet_approved' ) ;
#276 = PERSON_AND_ORGANIZATION ( #174, #284 ) ;
#277 = PRODUCT_DEFINITION ( 'NON CONOSCIUTO', '', #255, #278 ) ;
#278 = DESIGN_CONTEXT ( 'detailed design', #280, 'design' ) ;
#279 = APPLICATION_PROTOCOL_DEFINITION ( 'international standard', 'config_control_design', 1994, #280 ) ;
#280 = APPLICATION_CONTEXT ( 'configuration controlled 3d designs of mechanical parts and assemblies' ) ;
#281 = CC_DESIGN_PERSON_AND_ORGANIZATION_ASSIGNMENT ( #283, #282, ( #175 ) ) ;
#282 = PERSON_AND_ORGANIZATION_ROLE ( 'design_owner' ) ;
#283 = PERSON_AND_ORGANIZATION ( #174, #284 ) ;
#284 = ORGANIZATION ( 'NON SPECIFICATO', 'NON SPECIFICATO', '' ) ;
#285 = UNCERTAINTY_MEASURE_WITH_UNIT (LENGTH_MEASURE( 1.000000000000000100E-005 ), #288, 'distance_accuracy_value', 'NONE');
#286 =( NAMED_UNIT ( * ) SI_UNIT ( $, .STERADIAN. ) SOLID_ANGLE_UNIT ( ) );
#287 =( NAMED_UNIT ( * ) PLANE_ANGLE_UNIT ( ) SI_UNIT ( $, .RADIAN. ) );
#288 =( LENGTH_UNIT ( ) NAMED_UNIT ( * ) SI_UNIT ( .MILLI., .METRE. ) );
#289 = DIRECTION ( 'NONE',  ( -0.0000000000000000000, -1.000000000000000000, -0.0000000000000000000 ) ) ;
#290 = VECTOR ( 'NONE', #289, 1000.000000000000000 ) ;
#291 = CARTESIAN_POINT ( 'NONE',  ( 5.000000000000000000, 2.000000000000000000, -4.999999999999999100 ) ) ;
#292 = LINE ( 'NONE', #291, #290 ) ;
#293 = CARTESIAN_POINT ( 'NONE',  ( 0.0000000000000000000, 0.0000000000000000000, 0.0000000000000000000 ) ) ;
#294 = DIRECTION ( 'NONE',  ( -0.0000000000000000000, -1.000000000000000000, -0.0000000000000000000 ) ) ;
#295 = VECTOR ( 'NONE', #294, 1000.000000000000000 ) ;
#296 = LINE ( 'NONE', #299, #295 ) ;
#297 = DIRECTION ( 'NONE',  ( 0.0000000000000000000, 0.0000000000000000000, 1.000000000000000000 ) ) ;
#298 = VECTOR ( 'NONE', #235, 1000.000000000000000 ) ;
#299 = CARTESIAN_POINT ( 'NONE',  ( 5.000000000000000000, 2.000000000000000000, 5.000000000000000900 ) ) ;
#300 = LINE ( 'NONE', #236, #298 ) ;
#301 = DIRECTION ( 'NONE',  ( 0.0000000000000000000, 0.0000000000000000000, 1.000000000000000000 ) ) ;
#302 = DIRECTION ( 'NONE',  ( 0.0000000000000000000, 1.000000000000000000, 0.0000000000000000000 ) ) ;
#303 = CARTESIAN_POINT ( 'NONE',  ( 0.0000000000000000000, 0.0000000000000000000, 0.0000000000000000000 ) ) ;
#304 = AXIS2_PLACEMENT_3D ( 'NONE', #303, #302, #301 ) ;
#305 = CIRCLE ( 'NONE', #304, 3.100000000000000500 ) ;
#306 = DIRECTION ( 'NONE',  ( 1.000000000000000000, 0.0000000000000000000, 0.0000000000000000000 ) ) ;
#307 = AXIS2_PLACEMENT_3D ( 'NONE', #293, #297, #306 ) ;
#308 = APPLICATION_PROTOCOL_DEFINITION ( 'international standard', 'config_control_design', 1994, #309 ) ;
#309 = APPLICATION_CONTEXT ( 'configuration controlled 3d designs of mechanical parts and assemblies' ) ;
#310 = ADVANCED_BREP_SHAPE_REPRESENTATION ( '084.303.003', ( #36, #307 ), #311 ) ;
#311 =( GEOMETRIC_REPRESENTATION_CONTEXT ( 3 ) GLOBAL_UNCERTAINTY_ASSIGNED_CONTEXT ( ( #285 ) ) GLOBAL_UNIT_ASSIGNED_CONTEXT ( ( #288, #287, #286 ) ) REPRESENTATION_CONTEXT ( 'NONE', 'WORKASPACE' ) );
ENDSEC;
END-ISO-10303-21;
