ISO-10303-21;
HEADER;
FILE_DESCRIPTION (( 'STEP AP203' ),
    '1' );
FILE_NAME ('084.303.001.STEP',
    '2013-01-25T08:51:32',
    ( 'Alusic' ),
    ( 'Alusic' ),
    'SwSTEP 2.0',
    'SolidWorks 2011',
    '' );
FILE_SCHEMA (( 'CONFIG_CONTROL_DESIGN' ));
ENDSEC;

DATA;
#1 = EDGE_LOOP ( 'NONE', ( #53, #50, #49, #64 ) ) ;
#2 = VERTEX_POINT ( 'NONE', #243 ) ;
#3 = PERSON_AND_ORGANIZATION_ROLE ( 'creator' ) ;
#4 = VERTEX_POINT ( 'NONE', #242 ) ;
#5 = VERTEX_POINT ( 'NONE', #241 ) ;
#6 = CC_DESIGN_PERSON_AND_ORGANIZATION_ASSIGNMENT ( #93, #3, ( #105 ) ) ;
#7 = COORDINATED_UNIVERSAL_TIME_OFFSET ( 1, 0, .AHEAD. ) ;
#8 = EDGE_CURVE ( 'NONE', #22, #2, #155, .T. ) ;
#9 = EDGE_CURVE ( 'NONE', #5, #4, #206, .T. ) ;
#10 = VERTEX_POINT ( 'NONE', #244 ) ;
#11 = ORIENTED_EDGE ( 'NONE', *, *, #246, .T. ) ;
#12 = EDGE_CURVE ( 'NONE', #78, #85, #156, .T. ) ;
#13 = CALENDAR_DATE ( 2013, 25, 1 ) ;
#14 = DATE_TIME_ROLE ( 'creation_date' ) ;
#15 = MANIFOLD_SOLID_BREP ( 'Estrusione1', #92 ) ;
#16 = DATE_AND_TIME ( #13, #18 ) ;
#17 = EDGE_CURVE ( 'NONE', #84, #74, #154, .T. ) ;
#18 = LOCAL_TIME ( 9, 51, 32.00000000000000000, #7 ) ;
#19 = CC_DESIGN_DATE_AND_TIME_ASSIGNMENT ( #16, #14, ( #105 ) ) ;
#20 = EDGE_LOOP ( 'NONE', ( #25, #24, #30, #11 ) ) ;
#21 = EDGE_CURVE ( 'NONE', #22, #5, #149, .T. ) ;
#22 = VERTEX_POINT ( 'NONE', #227 ) ;
#23 = ADVANCED_FACE ( 'NONE', ( #226, #150 ), #151, .F. ) ;
#24 = ORIENTED_EDGE ( 'NONE', *, *, #26, .T. ) ;
#25 = ORIENTED_EDGE ( 'NONE', *, *, #8, .T. ) ;
#26 = EDGE_CURVE ( 'NONE', #2, #10, #138, .T. ) ;
#27 = EDGE_CURVE ( 'NONE', #10, #31, #134, .T. ) ;
#28 = ORIENTED_EDGE ( 'NONE', *, *, #29, .F. ) ;
#29 = EDGE_CURVE ( 'NONE', #84, #78, #228, .T. ) ;
#30 = ORIENTED_EDGE ( 'NONE', *, *, #27, .T. ) ;
#31 = VERTEX_POINT ( 'NONE', #139 ) ;
#32 = ORIENTED_EDGE ( 'NONE', *, *, #33, .F. ) ;
#33 = EDGE_CURVE ( 'NONE', #211, #212, #125, .T. ) ;
#34 = ORIENTED_EDGE ( 'NONE', *, *, #240, .T. ) ;
#35 = EDGE_CURVE ( 'NONE', #4, #211, #129, .T. ) ;
#36 = ORIENTED_EDGE ( 'NONE', *, *, #35, .F. ) ;
#37 = EDGE_LOOP ( 'NONE', ( #40, #34 ) ) ;
#38 = EDGE_LOOP ( 'NONE', ( #41, #45, #42, #48 ) ) ;
#39 = EDGE_CURVE ( 'NONE', #2, #4, #217, .T. ) ;
#40 = ORIENTED_EDGE ( 'NONE', *, *, #75, .T. ) ;
#41 = ORIENTED_EDGE ( 'NONE', *, *, #9, .T. ) ;
#42 = ORIENTED_EDGE ( 'NONE', *, *, #8, .F. ) ;
#43 = ADVANCED_FACE ( 'NONE', ( #130 ), #191, .F. ) ;
#44 = EDGE_CURVE ( 'NONE', #10, #211, #193, .T. ) ;
#45 = ORIENTED_EDGE ( 'NONE', *, *, #39, .F. ) ;
#46 = ORIENTED_EDGE ( 'NONE', *, *, #33, .T. ) ;
#47 = EDGE_LOOP ( 'NONE', ( #52, #67, #60, #55 ) ) ;
#48 = ORIENTED_EDGE ( 'NONE', *, *, #21, .T. ) ;
#49 = ORIENTED_EDGE ( 'NONE', *, *, #26, .F. ) ;
#50 = ORIENTED_EDGE ( 'NONE', *, *, #44, .F. ) ;
#51 = ADVANCED_FACE ( 'NONE', ( #195 ), #186, .F. ) ;
#52 = ORIENTED_EDGE ( 'NONE', *, *, #17, .F. ) ;
#53 = ORIENTED_EDGE ( 'NONE', *, *, #35, .T. ) ;
#54 = APPROVAL_STATUS ( 'not_yet_approved' ) ;
#55 = ORIENTED_EDGE ( 'NONE', *, *, #240, .F. ) ;
#56 = ADVANCED_FACE ( 'NONE', ( #123 ), #180, .F. ) ;
#57 = ORIENTED_EDGE ( 'NONE', *, *, #246, .F. ) ;
#58 = ORIENTED_EDGE ( 'NONE', *, *, #66, .T. ) ;
#59 = ADVANCED_FACE ( 'NONE', ( #185 ), #176, .F. ) ;
#60 = ORIENTED_EDGE ( 'NONE', *, *, #12, .T. ) ;
#61 = ORIENTED_EDGE ( 'NONE', *, *, #12, .F. ) ;
#62 = EDGE_LOOP ( 'NONE', ( #46, #69, #68, #70 ) ) ;
#63 = ORIENTED_EDGE ( 'NONE', *, *, #157, .T. ) ;
#64 = ORIENTED_EDGE ( 'NONE', *, *, #39, .T. ) ;
#65 = ADVANCED_FACE ( 'NONE', ( #166 ), #178, .F. ) ;
#66 = EDGE_CURVE ( 'NONE', #31, #212, #235, .T. ) ;
#67 = ORIENTED_EDGE ( 'NONE', *, *, #29, .T. ) ;
#68 = ORIENTED_EDGE ( 'NONE', *, *, #27, .F. ) ;
#69 = ORIENTED_EDGE ( 'NONE', *, *, #66, .F. ) ;
#70 = ORIENTED_EDGE ( 'NONE', *, *, #44, .T. ) ;
#71 = ORIENTED_EDGE ( 'NONE', *, *, #21, .F. ) ;
#72 = EDGE_LOOP ( 'NONE', ( #63, #71, #57, #58 ) ) ;
#73 = ORIENTED_EDGE ( 'NONE', *, *, #75, .F. ) ;
#74 = VERTEX_POINT ( 'NONE', #194 ) ;
#75 = EDGE_CURVE ( 'NONE', #85, #74, #167, .T. ) ;
#76 = ORIENTED_EDGE ( 'NONE', *, *, #77, .T. ) ;
#77 = EDGE_CURVE ( 'NONE', #78, #84, #230, .T. ) ;
#78 = VERTEX_POINT ( 'NONE', #165 ) ;
#79 = EDGE_LOOP ( 'NONE', ( #76, #86, #73, #61 ) ) ;
#80 = APPROVAL ( #54, 'NON SPECIFICATO' ) ;
#81 = PERSON_AND_ORGANIZATION ( #200, #199 ) ;
#82 = PRODUCT_DEFINITION_FORMATION_WITH_SPECIFIED_SOURCE ( 'TUTTO', '', #201, .NOT_KNOWN. ) ;
#83 = ADVANCED_FACE ( 'NONE', ( #265 ), #273, .F. ) ;
#84 = VERTEX_POINT ( 'NONE', #272 ) ;
#85 = VERTEX_POINT ( 'NONE', #229 ) ;
#86 = ORIENTED_EDGE ( 'NONE', *, *, #17, .T. ) ;
#87 = CALENDAR_DATE ( 2013, 25, 1 ) ;
#88 = LOCAL_TIME ( 9, 51, 32.00000000000000000, #89 ) ;
#89 = COORDINATED_UNIVERSAL_TIME_OFFSET ( 1, 0, .AHEAD. ) ;
#90 = APPROVAL_PERSON_ORGANIZATION ( #81, #80, #91 ) ;
#91 = APPROVAL_ROLE ( '' ) ;
#92 = CLOSED_SHELL ( 'NONE', ( #83, #23, #109, #43, #51, #65, #56, #59 ) ) ;
#93 = PERSON_AND_ORGANIZATION ( #200, #199 ) ;
#94 = CC_DESIGN_APPROVAL ( #102, ( #105 ) ) ;
#95 = APPROVAL_DATE_TIME ( #96, #102 ) ;
#96 = DATE_AND_TIME ( #97, #98 ) ;
#97 = CALENDAR_DATE ( 2013, 25, 1 ) ;
#98 = LOCAL_TIME ( 9, 51, 32.00000000000000000, #99 ) ;
#99 = COORDINATED_UNIVERSAL_TIME_OFFSET ( 1, 0, .AHEAD. ) ;
#100 = APPROVAL_PERSON_ORGANIZATION ( #104, #102, #101 ) ;
#101 = APPROVAL_ROLE ( '' ) ;
#102 = APPROVAL ( #103, 'NON SPECIFICATO' ) ;
#103 = APPROVAL_STATUS ( 'not_yet_approved' ) ;
#104 = PERSON_AND_ORGANIZATION ( #200, #199 ) ;
#105 = PRODUCT_DEFINITION ( 'NON CONOSCIUTO', '', #82, #106 ) ;
#106 = DESIGN_CONTEXT ( 'detailed design', #108, 'design' ) ;
#107 = APPLICATION_PROTOCOL_DEFINITION ( 'international standard', 'config_control_design', 1994, #108 ) ;
#108 = APPLICATION_CONTEXT ( 'configuration controlled 3d designs of mechanical parts and assemblies' ) ;
#109 = ADVANCED_FACE ( 'NONE', ( #271, #231 ), #168, .T. ) ;
#110 = ORIENTED_EDGE ( 'NONE', *, *, #157, .F. ) ;
#111 = ORIENTED_EDGE ( 'NONE', *, *, #9, .F. ) ;
#112 = ADVANCED_BREP_SHAPE_REPRESENTATION ( '084.303.001', ( #15, #160 ), #113 ) ;
#113 =( GEOMETRIC_REPRESENTATION_CONTEXT ( 3 ) GLOBAL_UNCERTAINTY_ASSIGNED_CONTEXT ( ( #114 ) ) GLOBAL_UNIT_ASSIGNED_CONTEXT ( ( #245, #116, #115 ) ) REPRESENTATION_CONTEXT ( 'NONE', 'WORKASPACE' ) );
#114 = UNCERTAINTY_MEASURE_WITH_UNIT (LENGTH_MEASURE( 1.000000000000000100E-005 ), #245, 'distance_accuracy_value', 'NONE');
#115 =( NAMED_UNIT ( * ) SI_UNIT ( $, .STERADIAN. ) SOLID_ANGLE_UNIT ( ) );
#116 =( NAMED_UNIT ( * ) PLANE_ANGLE_UNIT ( ) SI_UNIT ( $, .RADIAN. ) );
#117 = DIRECTION ( 'NONE',  ( -1.000000000000000000, -0.0000000000000000000, -0.0000000000000000000 ) ) ;
#118 = VECTOR ( 'NONE', #117, 1000.000000000000000 ) ;
#119 = CARTESIAN_POINT ( 'NONE',  ( -6.500000000000000900, 2.000000000000000000, -6.500000000000000900 ) ) ;
#120 = DIRECTION ( 'NONE',  ( 0.0000000000000000000, 0.0000000000000000000, 1.000000000000000000 ) ) ;
#121 = CARTESIAN_POINT ( 'NONE',  ( 6.499999999999999100, 0.0000000000000000000, 6.499999999999999100 ) ) ;
#122 = DIRECTION ( 'NONE',  ( 0.0000000000000000000, 0.0000000000000000000, -1.000000000000000000 ) ) ;
#123 = FACE_OUTER_BOUND ( 'NONE', #72, .T. ) ;
#124 = AXIS2_PLACEMENT_3D ( 'NONE', #184, #122, #177 ) ;
#125 = LINE ( 'NONE', #121, #222 ) ;
#126 = DIRECTION ( 'NONE',  ( 0.0000000000000000000, 0.0000000000000000000, 1.000000000000000000 ) ) ;
#127 = DIRECTION ( 'NONE',  ( 0.0000000000000000000, 1.000000000000000000, 0.0000000000000000000 ) ) ;
#128 = CARTESIAN_POINT ( 'NONE',  ( 0.0000000000000000000, 2.000000000000000000, 0.0000000000000000000 ) ) ;
#129 = LINE ( 'NONE', #145, #219 ) ;
#130 = FACE_OUTER_BOUND ( 'NONE', #38, .T. ) ;
#131 = AXIS2_PLACEMENT_3D ( 'NONE', #179, #170, #164 ) ;
#132 = DIRECTION ( 'NONE',  ( 0.0000000000000000000, 0.0000000000000000000, -1.000000000000000000 ) ) ;
#133 = VECTOR ( 'NONE', #132, 1000.000000000000000 ) ;
#134 = LINE ( 'NONE', #158, #133 ) ;
#135 = DIRECTION ( 'NONE',  ( 1.000000000000000000, 0.0000000000000000000, 0.0000000000000000000 ) ) ;
#136 = VECTOR ( 'NONE', #135, 1000.000000000000000 ) ;
#137 = CARTESIAN_POINT ( 'NONE',  ( -6.500000000000000900, 2.000000000000000000, 6.499999999999999100 ) ) ;
#138 = LINE ( 'NONE', #137, #136 ) ;
#139 = CARTESIAN_POINT ( 'NONE',  ( 6.499999999999999100, 2.000000000000000000, -6.500000000000000900 ) ) ;
#140 = DIRECTION ( 'NONE',  ( 0.0000000000000000000, -0.0000000000000000000, -1.000000000000000000 ) ) ;
#141 = DIRECTION ( 'NONE',  ( 0.0000000000000000000, -1.000000000000000000, 0.0000000000000000000 ) ) ;
#142 = CARTESIAN_POINT ( 'NONE',  ( -6.500000000000000900, 2.000000000000000000, -6.500000000000000900 ) ) ;
#143 = AXIS2_PLACEMENT_3D ( 'NONE', #142, #141, #140 ) ;
#144 = AXIS2_PLACEMENT_3D ( 'NONE', #128, #127, #126 ) ;
#145 = CARTESIAN_POINT ( 'NONE',  ( -6.500000000000000900, 0.0000000000000000000, 6.499999999999999100 ) ) ;
#146 = DIRECTION ( 'NONE',  ( -0.0000000000000000000, -1.000000000000000000, -0.0000000000000000000 ) ) ;
#147 = VECTOR ( 'NONE', #146, 1000.000000000000000 ) ;
#148 = CARTESIAN_POINT ( 'NONE',  ( -6.500000000000000900, 2.000000000000000000, -6.500000000000000900 ) ) ;
#149 = LINE ( 'NONE', #148, #147 ) ;
#150 = FACE_BOUND ( 'NONE', #213, .T. ) ;
#151 = PLANE ( 'NONE',  #143 ) ;
#152 = DIRECTION ( 'NONE',  ( -0.0000000000000000000, -1.000000000000000000, -0.0000000000000000000 ) ) ;
#153 = VECTOR ( 'NONE', #152, 1000.000000000000000 ) ;
#154 = LINE ( 'NONE', #207, #153 ) ;
#155 = LINE ( 'NONE', #210, #209 ) ;
#156 = LINE ( 'NONE', #225, #224 ) ;
#157 = EDGE_CURVE ( 'NONE', #212, #5, #262, .T. ) ;
#158 = CARTESIAN_POINT ( 'NONE',  ( 6.499999999999999100, 2.000000000000000000, 6.499999999999999100 ) ) ;
#159 = DIRECTION ( 'NONE',  ( 1.000000000000000000, 0.0000000000000000000, 0.0000000000000000000 ) ) ;
#160 = AXIS2_PLACEMENT_3D ( 'NONE', #247, #120, #159 ) ;
#161 = APPLICATION_PROTOCOL_DEFINITION ( 'international standard', 'config_control_design', 1994, #162 ) ;
#162 = APPLICATION_CONTEXT ( 'configuration controlled 3d designs of mechanical parts and assemblies' ) ;
#163 = CARTESIAN_POINT ( 'NONE',  ( 6.499999999999999100, 0.0000000000000000000, -6.500000000000000900 ) ) ;
#164 = DIRECTION ( 'NONE',  ( 0.0000000000000000000, 0.0000000000000000000, -1.000000000000000000 ) ) ;
#165 = CARTESIAN_POINT ( 'NONE',  ( 0.0000000000000000000, 2.000000000000000000, -4.250000000000000000 ) ) ;
#166 = FACE_OUTER_BOUND ( 'NONE', #62, .T. ) ;
#167 = CIRCLE ( 'NONE', #236, 4.250000000000000000 ) ;
#168 = PLANE ( 'NONE',  #270 ) ;
#169 = AXIS2_PLACEMENT_3D ( 'NONE', #268, #267, #266 ) ;
#170 = DIRECTION ( 'NONE',  ( -0.0000000000000000000, -1.000000000000000000, -0.0000000000000000000 ) ) ;
#171 = DIRECTION ( 'NONE',  ( 1.000000000000000000, 0.0000000000000000000, -0.0000000000000000000 ) ) ;
#172 = DIRECTION ( 'NONE',  ( 0.0000000000000000000, 0.0000000000000000000, 1.000000000000000000 ) ) ;
#173 = CARTESIAN_POINT ( 'NONE',  ( -6.500000000000000900, 2.000000000000000000, -6.500000000000000900 ) ) ;
#174 = DIRECTION ( 'NONE',  ( -1.000000000000000000, 0.0000000000000000000, 0.0000000000000000000 ) ) ;
#175 = CARTESIAN_POINT ( 'NONE',  ( 6.499999999999999100, 2.000000000000000000, 6.499999999999999100 ) ) ;
#176 = CYLINDRICAL_SURFACE ( 'NONE', #131, 4.250000000000000000 ) ;
#177 = DIRECTION ( 'NONE',  ( -1.000000000000000000, 0.0000000000000000000, -0.0000000000000000000 ) ) ;
#178 = PLANE ( 'NONE',  #181 ) ;
#179 = CARTESIAN_POINT ( 'NONE',  ( 0.0000000000000000000, 2.000000000000000000, 0.0000000000000000000 ) ) ;
#180 = PLANE ( 'NONE',  #220 ) ;
#181 = AXIS2_PLACEMENT_3D ( 'NONE', #175, #174, #237 ) ;
#182 = DIRECTION ( 'NONE',  ( -0.0000000000000000000, -1.000000000000000000, -0.0000000000000000000 ) ) ;
#183 = VECTOR ( 'NONE', #182, 1000.000000000000000 ) ;
#184 = CARTESIAN_POINT ( 'NONE',  ( -6.500000000000000900, 2.000000000000000000, 6.499999999999999100 ) ) ;
#185 = FACE_OUTER_BOUND ( 'NONE', #47, .T. ) ;
#186 = PLANE ( 'NONE',  #124 ) ;
#187 = DIRECTION ( 'NONE',  ( 0.0000000000000000000, 0.0000000000000000000, -1.000000000000000000 ) ) ;
#188 = DIRECTION ( 'NONE',  ( 1.000000000000000000, -0.0000000000000000000, 0.0000000000000000000 ) ) ;
#189 = CARTESIAN_POINT ( 'NONE',  ( -6.500000000000000900, 2.000000000000000000, 6.499999999999999100 ) ) ;
#190 = AXIS2_PLACEMENT_3D ( 'NONE', #189, #188, #187 ) ;
#191 = PLANE ( 'NONE',  #190 ) ;
#192 = CARTESIAN_POINT ( 'NONE',  ( 6.499999999999999100, 2.000000000000000000, 6.499999999999999100 ) ) ;
#193 = LINE ( 'NONE', #192, #183 ) ;
#194 = CARTESIAN_POINT ( 'NONE',  ( 5.204748896376250700E-016, 0.0000000000000000000, 4.250000000000000000 ) ) ;
#195 = FACE_OUTER_BOUND ( 'NONE', #1, .T. ) ;
#196 = CC_DESIGN_PERSON_AND_ORGANIZATION_ASSIGNMENT ( #198, #197, ( #201 ) ) ;
#197 = PERSON_AND_ORGANIZATION_ROLE ( 'design_owner' ) ;
#198 = PERSON_AND_ORGANIZATION ( #200, #199 ) ;
#199 = ORGANIZATION ( 'NON SPECIFICATO', 'NON SPECIFICATO', '' ) ;
#200 = PERSON ( 'NON SPECIFICATO', 'NON SPECIFICATO', 'NON SPECIFICATO', ('NON SPECIFICATO'), ('NON SPECIFICATO'), ('NON SPECIFICATO') ) ;
#201 = PRODUCT ( '084.303.001', '084.303.001', '', ( #202 ) ) ;
#202 = MECHANICAL_CONTEXT ( 'NONE', #162, 'mechanical' ) ;
#203 = DIRECTION ( 'NONE',  ( -0.0000000000000000000, -0.0000000000000000000, 1.000000000000000000 ) ) ;
#204 = VECTOR ( 'NONE', #203, 1000.000000000000000 ) ;
#205 = CARTESIAN_POINT ( 'NONE',  ( -6.500000000000000900, 0.0000000000000000000, 6.499999999999999100 ) ) ;
#206 = LINE ( 'NONE', #205, #204 ) ;
#207 = CARTESIAN_POINT ( 'NONE',  ( 5.204748896376250700E-016, 2.000000000000000000, 4.250000000000000000 ) ) ;
#208 = DIRECTION ( 'NONE',  ( -0.0000000000000000000, -0.0000000000000000000, 1.000000000000000000 ) ) ;
#209 = VECTOR ( 'NONE', #208, 1000.000000000000000 ) ;
#210 = CARTESIAN_POINT ( 'NONE',  ( -6.500000000000000900, 2.000000000000000000, 6.499999999999999100 ) ) ;
#211 = VERTEX_POINT ( 'NONE', #256 ) ;
#212 = VERTEX_POINT ( 'NONE', #163 ) ;
#213 = EDGE_LOOP ( 'NONE', ( #239, #28 ) ) ;
#214 = DIRECTION ( 'NONE',  ( -0.0000000000000000000, -1.000000000000000000, -0.0000000000000000000 ) ) ;
#215 = VECTOR ( 'NONE', #214, 1000.000000000000000 ) ;
#216 = CARTESIAN_POINT ( 'NONE',  ( -6.500000000000000900, 2.000000000000000000, 6.499999999999999100 ) ) ;
#217 = LINE ( 'NONE', #216, #215 ) ;
#218 = DIRECTION ( 'NONE',  ( 1.000000000000000000, 0.0000000000000000000, 0.0000000000000000000 ) ) ;
#219 = VECTOR ( 'NONE', #218, 1000.000000000000000 ) ;
#220 = AXIS2_PLACEMENT_3D ( 'NONE', #173, #172, #171 ) ;
#221 = DIRECTION ( 'NONE',  ( 0.0000000000000000000, 0.0000000000000000000, -1.000000000000000000 ) ) ;
#222 = VECTOR ( 'NONE', #221, 1000.000000000000000 ) ;
#223 = DIRECTION ( 'NONE',  ( -0.0000000000000000000, -1.000000000000000000, -0.0000000000000000000 ) ) ;
#224 = VECTOR ( 'NONE', #223, 1000.000000000000000 ) ;
#225 = CARTESIAN_POINT ( 'NONE',  ( 0.0000000000000000000, 2.000000000000000000, -4.250000000000000000 ) ) ;
#226 = FACE_OUTER_BOUND ( 'NONE', #20, .T. ) ;
#227 = CARTESIAN_POINT ( 'NONE',  ( -6.500000000000000900, 2.000000000000000000, -6.500000000000000900 ) ) ;
#228 = CIRCLE ( 'NONE', #144, 4.250000000000000000 ) ;
#229 = CARTESIAN_POINT ( 'NONE',  ( 0.0000000000000000000, 0.0000000000000000000, -4.250000000000000000 ) ) ;
#230 = CIRCLE ( 'NONE', #169, 4.250000000000000000 ) ;
#231 = FACE_BOUND ( 'NONE', #37, .T. ) ;
#232 = DIRECTION ( 'NONE',  ( -0.0000000000000000000, -1.000000000000000000, -0.0000000000000000000 ) ) ;
#233 = VECTOR ( 'NONE', #232, 1000.000000000000000 ) ;
#234 = CARTESIAN_POINT ( 'NONE',  ( 6.499999999999999100, 2.000000000000000000, -6.500000000000000900 ) ) ;
#235 = LINE ( 'NONE', #234, #233 ) ;
#236 = AXIS2_PLACEMENT_3D ( 'NONE', #276, #275, #274 ) ;
#237 = DIRECTION ( 'NONE',  ( 0.0000000000000000000, 0.0000000000000000000, 1.000000000000000000 ) ) ;
#238 = EDGE_LOOP ( 'NONE', ( #111, #110, #32, #36 ) ) ;
#239 = ORIENTED_EDGE ( 'NONE', *, *, #77, .F. ) ;
#240 = EDGE_CURVE ( 'NONE', #74, #85, #258, .T. ) ;
#241 = CARTESIAN_POINT ( 'NONE',  ( -6.500000000000000900, 0.0000000000000000000, -6.500000000000000900 ) ) ;
#242 = CARTESIAN_POINT ( 'NONE',  ( -6.500000000000000900, 0.0000000000000000000, 6.499999999999999100 ) ) ;
#243 = CARTESIAN_POINT ( 'NONE',  ( -6.500000000000000900, 2.000000000000000000, 6.499999999999999100 ) ) ;
#244 = CARTESIAN_POINT ( 'NONE',  ( 6.499999999999999100, 2.000000000000000000, 6.499999999999999100 ) ) ;
#245 =( LENGTH_UNIT ( ) NAMED_UNIT ( * ) SI_UNIT ( .MILLI., .METRE. ) );
#246 = EDGE_CURVE ( 'NONE', #31, #22, #255, .T. ) ;
#247 = CARTESIAN_POINT ( 'NONE',  ( 0.0000000000000000000, 0.0000000000000000000, 0.0000000000000000000 ) ) ;
#248 = DIRECTION ( 'NONE',  ( 0.0000000000000000000, 0.0000000000000000000, 1.000000000000000000 ) ) ;
#249 = DIRECTION ( 'NONE',  ( 0.0000000000000000000, 1.000000000000000000, 0.0000000000000000000 ) ) ;
#250 = CARTESIAN_POINT ( 'NONE',  ( 0.0000000000000000000, 0.0000000000000000000, 0.0000000000000000000 ) ) ;
#251 = AXIS2_PLACEMENT_3D ( 'NONE', #250, #249, #248 ) ;
#252 = DIRECTION ( 'NONE',  ( -1.000000000000000000, -0.0000000000000000000, -0.0000000000000000000 ) ) ;
#253 = VECTOR ( 'NONE', #252, 1000.000000000000000 ) ;
#254 = CARTESIAN_POINT ( 'NONE',  ( -6.500000000000000900, 0.0000000000000000000, -6.500000000000000900 ) ) ;
#255 = LINE ( 'NONE', #119, #118 ) ;
#256 = CARTESIAN_POINT ( 'NONE',  ( 6.499999999999999100, 0.0000000000000000000, 6.499999999999999100 ) ) ;
#257 = CARTESIAN_POINT ( 'NONE',  ( -6.500000000000000900, 0.0000000000000000000, -6.500000000000000900 ) ) ;
#258 = CIRCLE ( 'NONE', #251, 4.250000000000000000 ) ;
#259 = DIRECTION ( 'NONE',  ( 0.0000000000000000000, 0.0000000000000000000, -1.000000000000000000 ) ) ;
#260 = DIRECTION ( 'NONE',  ( 0.0000000000000000000, -0.0000000000000000000, -1.000000000000000000 ) ) ;
#261 = DIRECTION ( 'NONE',  ( 0.0000000000000000000, -1.000000000000000000, 0.0000000000000000000 ) ) ;
#262 = LINE ( 'NONE', #254, #253 ) ;
#263 = DIRECTION ( 'NONE',  ( -0.0000000000000000000, -1.000000000000000000, -0.0000000000000000000 ) ) ;
#264 = CARTESIAN_POINT ( 'NONE',  ( 0.0000000000000000000, 2.000000000000000000, 0.0000000000000000000 ) ) ;
#265 = FACE_OUTER_BOUND ( 'NONE', #79, .T. ) ;
#266 = DIRECTION ( 'NONE',  ( 0.0000000000000000000, 0.0000000000000000000, 1.000000000000000000 ) ) ;
#267 = DIRECTION ( 'NONE',  ( 0.0000000000000000000, 1.000000000000000000, 0.0000000000000000000 ) ) ;
#268 = CARTESIAN_POINT ( 'NONE',  ( 0.0000000000000000000, 2.000000000000000000, 0.0000000000000000000 ) ) ;
#269 = AXIS2_PLACEMENT_3D ( 'NONE', #264, #263, #259 ) ;
#270 = AXIS2_PLACEMENT_3D ( 'NONE', #257, #261, #260 ) ;
#271 = FACE_OUTER_BOUND ( 'NONE', #238, .T. ) ;
#272 = CARTESIAN_POINT ( 'NONE',  ( 5.204748896376250700E-016, 2.000000000000000000, 4.250000000000000000 ) ) ;
#273 = CYLINDRICAL_SURFACE ( 'NONE', #269, 4.250000000000000000 ) ;
#274 = DIRECTION ( 'NONE',  ( 0.0000000000000000000, 0.0000000000000000000, 1.000000000000000000 ) ) ;
#275 = DIRECTION ( 'NONE',  ( 0.0000000000000000000, 1.000000000000000000, 0.0000000000000000000 ) ) ;
#276 = CARTESIAN_POINT ( 'NONE',  ( 0.0000000000000000000, 0.0000000000000000000, 0.0000000000000000000 ) ) ;
#277 = SHAPE_DEFINITION_REPRESENTATION ( #278, #112 ) ;
#278 = PRODUCT_DEFINITION_SHAPE ( 'NONE', 'NONE',  #105 ) ;
#279 = PRODUCT_RELATED_PRODUCT_CATEGORY ( 'detail', '', ( #201 ) ) ;
#280 = CC_DESIGN_SECURITY_CLASSIFICATION ( #287, ( #82 ) ) ;
#281 = DATE_AND_TIME ( #282, #283 ) ;
#282 = CALENDAR_DATE ( 2013, 25, 1 ) ;
#283 = LOCAL_TIME ( 9, 51, 32.00000000000000000, #284 ) ;
#284 = COORDINATED_UNIVERSAL_TIME_OFFSET ( 1, 0, .AHEAD. ) ;
#285 = CC_DESIGN_PERSON_AND_ORGANIZATION_ASSIGNMENT ( #286, #288, ( #287 ) ) ;
#286 = PERSON_AND_ORGANIZATION ( #200, #199 ) ;
#287 = SECURITY_CLASSIFICATION ( '', '', #289 ) ;
#288 = PERSON_AND_ORGANIZATION_ROLE ( 'classification_officer' ) ;
#289 = SECURITY_CLASSIFICATION_LEVEL ( 'unclassified' ) ;
#290 = CC_DESIGN_PERSON_AND_ORGANIZATION_ASSIGNMENT ( #292, #291, ( #82 ) ) ;
#291 = PERSON_AND_ORGANIZATION_ROLE ( 'design_supplier' ) ;
#292 = PERSON_AND_ORGANIZATION ( #200, #199 ) ;
#293 = CC_DESIGN_PERSON_AND_ORGANIZATION_ASSIGNMENT ( #308, #307, ( #82 ) ) ;
#294 = CC_DESIGN_APPROVAL ( #302, ( #287 ) ) ;
#295 = APPROVAL_DATE_TIME ( #296, #302 ) ;
#296 = DATE_AND_TIME ( #297, #298 ) ;
#297 = CALENDAR_DATE ( 2013, 25, 1 ) ;
#298 = LOCAL_TIME ( 9, 51, 32.00000000000000000, #299 ) ;
#299 = COORDINATED_UNIVERSAL_TIME_OFFSET ( 1, 0, .AHEAD. ) ;
#300 = APPROVAL_PERSON_ORGANIZATION ( #304, #302, #301 ) ;
#301 = APPROVAL_ROLE ( '' ) ;
#302 = APPROVAL ( #303, 'NON SPECIFICATO' ) ;
#303 = APPROVAL_STATUS ( 'not_yet_approved' ) ;
#304 = PERSON_AND_ORGANIZATION ( #200, #199 ) ;
#305 = CC_DESIGN_DATE_AND_TIME_ASSIGNMENT ( #281, #306, ( #287 ) ) ;
#306 = DATE_TIME_ROLE ( 'classification_date' ) ;
#307 = PERSON_AND_ORGANIZATION_ROLE ( 'creator' ) ;
#308 = PERSON_AND_ORGANIZATION ( #200, #199 ) ;
#309 = CC_DESIGN_APPROVAL ( #80, ( #82 ) ) ;
#310 = APPROVAL_DATE_TIME ( #311, #80 ) ;
#311 = DATE_AND_TIME ( #87, #88 ) ;
ENDSEC;
END-ISO-10303-21;
