ISO-10303-21;
HEADER;
FILE_DESCRIPTION (( 'STEP AP203' ),
    '1' );
FILE_NAME ('084.302.042.STEP',
    '2013-01-25T09:08:45',
    ( 'Alusic' ),
    ( 'Alusic' ),
    'SwSTEP 2.0',
    'SolidWorks 2011',
    '' );
FILE_SCHEMA (( 'CONFIG_CONTROL_DESIGN' ));
ENDSEC;

DATA;
#1 = VERTEX_POINT ( 'NONE', #151 ) ;
#2 = EDGE_CURVE ( 'NONE', #1, #87, #133, .T. ) ;
#3 = EDGE_CURVE ( 'NONE', #62, #53, #103, .T. ) ;
#4 = ORIENTED_EDGE ( 'NONE', *, *, #77, .T. ) ;
#5 = ORIENTED_EDGE ( 'NONE', *, *, #86, .F. ) ;
#6 = ORIENTED_EDGE ( 'NONE', *, *, #3, .T. ) ;
#7 = VERTEX_POINT ( 'NONE', #146 ) ;
#8 = CARTESIAN_POINT ( 'NONE',  ( 0.0000000000000000000, 0.0000000000000000000, 2.499999999999987600 ) ) ;
#9 = PERSON_AND_ORGANIZATION_ROLE ( 'design_supplier' ) ;
#10 = EDGE_LOOP ( 'NONE', ( #13, #41, #30, #27 ) ) ;
#11 = EDGE_LOOP ( 'NONE', ( #6, #4 ) ) ;
#12 = ADVANCED_FACE ( 'NONE', ( #130, #132 ), #114, .F. ) ;
#13 = ORIENTED_EDGE ( 'NONE', *, *, #2, .T. ) ;
#14 = ORIENTED_EDGE ( 'NONE', *, *, #78, .T. ) ;
#15 = ORIENTED_EDGE ( 'NONE', *, *, #38, .F. ) ;
#16 = VERTEX_POINT ( 'NONE', #136 ) ;
#17 = CC_DESIGN_PERSON_AND_ORGANIZATION_ASSIGNMENT ( #328, #9, ( #351 ) ) ;
#18 = VERTEX_POINT ( 'NONE', #141 ) ;
#19 = VERTEX_POINT ( 'NONE', #149 ) ;
#20 = EDGE_CURVE ( 'NONE', #35, #16, #109, .T. ) ;
#21 = EDGE_CURVE ( 'NONE', #7, #18, #219, .T. ) ;
#22 = EDGE_CURVE ( 'NONE', #87, #35, #190, .T. ) ;
#23 = ORIENTED_EDGE ( 'NONE', *, *, #45, .F. ) ;
#24 = ORIENTED_EDGE ( 'NONE', *, *, #38, .T. ) ;
#25 = ADVANCED_FACE ( 'NONE', ( #215 ), #197, .F. ) ;
#26 = ORIENTED_EDGE ( 'NONE', *, *, #99, .F. ) ;
#27 = ORIENTED_EDGE ( 'NONE', *, *, #86, .T. ) ;
#28 = EDGE_LOOP ( 'NONE', ( #32, #15, #40, #33 ) ) ;
#29 = EDGE_LOOP ( 'NONE', ( #36, #46, #23, #24 ) ) ;
#30 = ORIENTED_EDGE ( 'NONE', *, *, #21, .F. ) ;
#31 = ADVANCED_FACE ( 'NONE', ( #208 ), #213, .F. ) ;
#32 = ORIENTED_EDGE ( 'NONE', *, *, #22, .T. ) ;
#33 = ORIENTED_EDGE ( 'NONE', *, *, #104, .T. ) ;
#34 = EDGE_CURVE ( 'NONE', #18, #39, #171, .T. ) ;
#35 = VERTEX_POINT ( 'NONE', #214 ) ;
#36 = ORIENTED_EDGE ( 'NONE', *, *, #20, .T. ) ;
#37 = EDGE_CURVE ( 'NONE', #19, #16, #186, .T. ) ;
#38 = EDGE_CURVE ( 'NONE', #39, #35, #180, .T. ) ;
#39 = VERTEX_POINT ( 'NONE', #170 ) ;
#40 = ORIENTED_EDGE ( 'NONE', *, *, #34, .F. ) ;
#41 = ORIENTED_EDGE ( 'NONE', *, *, #104, .F. ) ;
#42 = EDGE_CURVE ( 'NONE', #52, #74, #212, .T. ) ;
#43 = ORIENTED_EDGE ( 'NONE', *, *, #75, .F. ) ;
#44 = ORIENTED_EDGE ( 'NONE', *, *, #55, .F. ) ;
#45 = EDGE_CURVE ( 'NONE', #39, #19, #216, .T. ) ;
#46 = ORIENTED_EDGE ( 'NONE', *, *, #37, .F. ) ;
#47 = ADVANCED_FACE ( 'NONE', ( #194, #218 ), #203, .F. ) ;
#48 = EDGE_LOOP ( 'NONE', ( #117, #43 ) ) ;
#49 = VECTOR ( 'NONE', #50, 1000.000000000000000 ) ;
#50 = DIRECTION ( 'NONE',  ( 0.0000000000000000000, -1.000000000000000000, 0.0000000000000000000 ) ) ;
#51 = ORIENTED_EDGE ( 'NONE', *, *, #78, .F. ) ;
#52 = VERTEX_POINT ( 'NONE', #196 ) ;
#53 = VERTEX_POINT ( 'NONE', #178 ) ;
#54 = MANIFOLD_SOLID_BREP ( 'Foro filettato M6-1', #162 ) ;
#55 = EDGE_CURVE ( 'NONE', #72, #69, #210, .T. ) ;
#56 = EDGE_LOOP ( 'NONE', ( #63, #95, #64, #66 ) ) ;
#57 = VERTEX_POINT ( 'NONE', #108 ) ;
#58 = VERTEX_POINT ( 'NONE', #147 ) ;
#59 = DIRECTION ( 'NONE',  ( -0.0000000000000000000, 1.000000000000000000, -0.0000000000000000000 ) ) ;
#60 = DIRECTION ( 'NONE',  ( 0.0000000000000000000, 0.0000000000000000000, 1.000000000000000000 ) ) ;
#61 = CARTESIAN_POINT ( 'NONE',  ( 0.0000000000000000000, 0.0000000000000000000, 0.0000000000000000000 ) ) ;
#62 = VERTEX_POINT ( 'NONE', #111 ) ;
#63 = ORIENTED_EDGE ( 'NONE', *, *, #77, .F. ) ;
#64 = ORIENTED_EDGE ( 'NONE', *, *, #75, .T. ) ;
#65 = ORIENTED_EDGE ( 'NONE', *, *, #82, .F. ) ;
#66 = ORIENTED_EDGE ( 'NONE', *, *, #81, .F. ) ;
#67 = DIRECTION ( 'NONE',  ( 1.000000000000000000, 0.0000000000000000000, 0.0000000000000000000 ) ) ;
#68 = ORIENTED_EDGE ( 'NONE', *, *, #82, .T. ) ;
#69 = VERTEX_POINT ( 'NONE', #152 ) ;
#70 = EDGE_LOOP ( 'NONE', ( #68, #120, #158, #123, #119, #160 ) ) ;
#71 = ORIENTED_EDGE ( 'NONE', *, *, #55, .T. ) ;
#72 = VERTEX_POINT ( 'NONE', #139 ) ;
#73 = ORIENTED_EDGE ( 'NONE', *, *, #80, .T. ) ;
#74 = VERTEX_POINT ( 'NONE', #121 ) ;
#75 = EDGE_CURVE ( 'NONE', #74, #52, #143, .T. ) ;
#76 = ADVANCED_FACE ( 'NONE', ( #204 ), #135, .F. ) ;
#77 = EDGE_CURVE ( 'NONE', #53, #62, #236, .T. ) ;
#78 = EDGE_CURVE ( 'NONE', #57, #58, #240, .T. ) ;
#79 = EDGE_CURVE ( 'NONE', #53, #74, #254, .T. ) ;
#80 = EDGE_CURVE ( 'NONE', #69, #58, #244, .T. ) ;
#81 = EDGE_CURVE ( 'NONE', #62, #52, #237, .T. ) ;
#82 = EDGE_CURVE ( 'NONE', #72, #57, #256, .T. ) ;
#83 = AXIS2_PLACEMENT_3D ( 'NONE', #61, #60, #67 ) ;
#84 = ORIENTED_EDGE ( 'NONE', *, *, #88, .T. ) ;
#85 = EDGE_CURVE ( 'NONE', #57, #7, #176, .T. ) ;
#86 = EDGE_CURVE ( 'NONE', #7, #1, #307, .T. ) ;
#87 = VERTEX_POINT ( 'NONE', #266 ) ;
#88 = EDGE_CURVE ( 'NONE', #58, #1, #267, .T. ) ;
#89 = ORIENTED_EDGE ( 'NONE', *, *, #85, .F. ) ;
#90 = EDGE_LOOP ( 'NONE', ( #84, #5, #89, #14 ) ) ;
#91 = ADVANCED_FACE ( 'NONE', ( #296 ), #285, .F. ) ;
#92 = VECTOR ( 'NONE', #59, 1000.000000000000000 ) ;
#93 = ADVANCED_FACE ( 'NONE', ( #298 ), #313, .F. ) ;
#94 = EDGE_LOOP ( 'NONE', ( #73, #51, #65, #71 ) ) ;
#95 = ORIENTED_EDGE ( 'NONE', *, *, #79, .T. ) ;
#96 = ORIENTED_EDGE ( 'NONE', *, *, #137, .T. ) ;
#97 = ORIENTED_EDGE ( 'NONE', *, *, #37, .T. ) ;
#98 = ORIENTED_EDGE ( 'NONE', *, *, #3, .F. ) ;
#99 = EDGE_CURVE ( 'NONE', #19, #72, #290, .T. ) ;
#100 = ORIENTED_EDGE ( 'NONE', *, *, #79, .F. ) ;
#101 = ORIENTED_EDGE ( 'NONE', *, *, #80, .F. ) ;
#102 = ORIENTED_EDGE ( 'NONE', *, *, #137, .F. ) ;
#103 = CIRCLE ( 'NONE', #126, 2.499999999999987100 ) ;
#104 = EDGE_CURVE ( 'NONE', #18, #87, #272, .T. ) ;
#105 = VECTOR ( 'NONE', #107, 1000.000000000000000 ) ;
#106 = DIRECTION ( 'NONE',  ( -9.637352644315595200E-017, 1.000000000000000000, 0.0000000000000000000 ) ) ;
#107 = DIRECTION ( 'NONE',  ( -4.336808689941994100E-016, 1.000000000000000000, -0.0000000000000000000 ) ) ;
#108 = CARTESIAN_POINT ( 'NONE',  ( -6.500000000000000000, -4.000000000000022200, 10.00000000000000000 ) ) ;
#109 = LINE ( 'NONE', #150, #105 ) ;
#110 = DIRECTION ( 'NONE',  ( -1.000000000000000000, -9.637352644315595200E-017, 0.0000000000000000000 ) ) ;
#111 = CARTESIAN_POINT ( 'NONE',  ( 0.0000000000000000000, -6.000000000000005300, 2.499999999999987100 ) ) ;
#112 = ADVANCED_FACE ( 'NONE', ( #292 ), #282, .F. ) ;
#113 = ADVANCED_FACE ( 'NONE', ( #287 ), #300, .F. ) ;
#114 = PLANE ( 'NONE',  #145 ) ;
#115 = SECURITY_CLASSIFICATION_LEVEL ( 'unclassified' ) ;
#116 = EDGE_LOOP ( 'NONE', ( #96, #44, #26, #97 ) ) ;
#117 = ORIENTED_EDGE ( 'NONE', *, *, #42, .F. ) ;
#118 = ORIENTED_EDGE ( 'NONE', *, *, #42, .T. ) ;
#119 = ORIENTED_EDGE ( 'NONE', *, *, #45, .T. ) ;
#120 = ORIENTED_EDGE ( 'NONE', *, *, #85, .T. ) ;
#121 = CARTESIAN_POINT ( 'NONE',  ( 3.061616997868368800E-016, 1.249139735130297400E-015, -2.499999999999988900 ) ) ;
#122 = EDGE_LOOP ( 'NONE', ( #100, #98, #157, #118 ) ) ;
#123 = ORIENTED_EDGE ( 'NONE', *, *, #34, .T. ) ;
#124 = ORIENTED_EDGE ( 'NONE', *, *, #88, .F. ) ;
#125 = ORIENTED_EDGE ( 'NONE', *, *, #22, .F. ) ;
#126 = AXIS2_PLACEMENT_3D ( 'NONE', #131, #144, #142 ) ;
#127 = DIRECTION ( 'NONE',  ( -0.0000000000000000000, 0.0000000000000000000, -1.000000000000000000 ) ) ;
#128 = DIRECTION ( 'NONE',  ( 1.000000000000000000, 9.637352644315595200E-017, 0.0000000000000000000 ) ) ;
#129 = VECTOR ( 'NONE', #128, 1000.000000000000000 ) ;
#130 = FACE_BOUND ( 'NONE', #11, .T. ) ;
#131 = CARTESIAN_POINT ( 'NONE',  ( 0.0000000000000000000, -6.000000000000005300, 0.0000000000000000000 ) ) ;
#132 = FACE_OUTER_BOUND ( 'NONE', #10, .T. ) ;
#133 = LINE ( 'NONE', #134, #129 ) ;
#134 = CARTESIAN_POINT ( 'NONE',  ( -4.499999999999999100, -6.000000000000000000, -10.00000000000000000 ) ) ;
#135 = PLANE ( 'NONE',  #148 ) ;
#136 = CARTESIAN_POINT ( 'NONE',  ( 6.500000000000000000, 1.591988259969090200E-015, -10.00000000000000000 ) ) ;
#137 = EDGE_CURVE ( 'NONE', #16, #69, #303, .T. ) ;
#138 = CARTESIAN_POINT ( 'NONE',  ( 0.0000000000000000000, 1.249139735130297400E-015, 0.0000000000000000000 ) ) ;
#139 = CARTESIAN_POINT ( 'NONE',  ( -6.500000000000000000, 0.0000000000000000000, 10.00000000000000000 ) ) ;
#140 = CARTESIAN_POINT ( 'NONE',  ( -4.499999999999999100, -6.000000000000000000, 10.00000000000000000 ) ) ;
#141 = CARTESIAN_POINT ( 'NONE',  ( 4.500000000000000900, -5.999999999999999100, 10.00000000000000000 ) ) ;
#142 = DIRECTION ( 'NONE',  ( 0.0000000000000000000, 0.0000000000000000000, 1.000000000000000000 ) ) ;
#143 = CIRCLE ( 'NONE', #165, 2.499999999999988500 ) ;
#144 = DIRECTION ( 'NONE',  ( -0.0000000000000000000, 1.000000000000000000, -0.0000000000000000000 ) ) ;
#145 = AXIS2_PLACEMENT_3D ( 'NONE', #140, #106, #110 ) ;
#146 = CARTESIAN_POINT ( 'NONE',  ( -4.499999999999999100, -6.000000000000000000, 10.00000000000000000 ) ) ;
#147 = CARTESIAN_POINT ( 'NONE',  ( -6.500000000000000000, -4.000000000000022200, -10.00000000000000000 ) ) ;
#148 = AXIS2_PLACEMENT_3D ( 'NONE', #156, #155, #127 ) ;
#149 = CARTESIAN_POINT ( 'NONE',  ( 6.500000000000000000, 1.591988259969090200E-015, 10.00000000000000000 ) ) ;
#150 = CARTESIAN_POINT ( 'NONE',  ( 6.500000000000000000, 1.591988259969090200E-015, -10.00000000000000000 ) ) ;
#151 = CARTESIAN_POINT ( 'NONE',  ( -4.499999999999999100, -6.000000000000000000, -10.00000000000000000 ) ) ;
#152 = CARTESIAN_POINT ( 'NONE',  ( -6.500000000000000000, 0.0000000000000000000, -10.00000000000000000 ) ) ;
#153 = ADVANCED_FACE ( 'NONE', ( #260 ), #305, .T. ) ;
#154 = ORIENTED_EDGE ( 'NONE', *, *, #2, .F. ) ;
#155 = DIRECTION ( 'NONE',  ( 1.000000000000000000, 0.0000000000000000000, -0.0000000000000000000 ) ) ;
#156 = CARTESIAN_POINT ( 'NONE',  ( -6.500000000000000000, 0.0000000000000000000, 10.00000000000000000 ) ) ;
#157 = ORIENTED_EDGE ( 'NONE', *, *, #81, .T. ) ;
#158 = ORIENTED_EDGE ( 'NONE', *, *, #21, .T. ) ;
#159 = EDGE_LOOP ( 'NONE', ( #101, #102, #161, #125, #154, #124 ) ) ;
#160 = ORIENTED_EDGE ( 'NONE', *, *, #99, .T. ) ;
#161 = ORIENTED_EDGE ( 'NONE', *, *, #20, .F. ) ;
#162 = CLOSED_SHELL ( 'NONE', ( #93, #76, #91, #12, #31, #25, #47, #153, #113, #112 ) ) ;
#163 = DIRECTION ( 'NONE',  ( 0.0000000000000000000, 0.0000000000000000000, 1.000000000000000000 ) ) ;
#164 = DIRECTION ( 'NONE',  ( -0.0000000000000000000, 1.000000000000000000, -0.0000000000000000000 ) ) ;
#165 = AXIS2_PLACEMENT_3D ( 'NONE', #138, #164, #163 ) ;
#166 = DIRECTION ( 'NONE',  ( -0.0000000000000000000, -0.0000000000000000000, -1.000000000000000000 ) ) ;
#167 = VECTOR ( 'NONE', #166, 1000.000000000000000 ) ;
#168 = CARTESIAN_POINT ( 'NONE',  ( -6.500000000000000000, 0.0000000000000000000, 10.00000000000000000 ) ) ;
#169 = VECTOR ( 'NONE', #211, 1000.000000000000000 ) ;
#170 = CARTESIAN_POINT ( 'NONE',  ( 6.500000000000001800, -4.000000000000020400, 10.00000000000000000 ) ) ;
#171 = LINE ( 'NONE', #188, #173 ) ;
#172 = CARTESIAN_POINT ( 'NONE',  ( 6.500000000000000000, 1.591988259969090200E-015, 10.00000000000000000 ) ) ;
#173 = VECTOR ( 'NONE', #187, 1000.000000000000000 ) ;
#174 = AXIS2_PLACEMENT_3D ( 'NONE', #181, #217, #175 ) ;
#175 = DIRECTION ( 'NONE',  ( 1.000000000000000000, 1.224606353822377300E-016, 0.0000000000000000000 ) ) ;
#176 = LINE ( 'NONE', #209, #169 ) ;
#177 = AXIS2_PLACEMENT_3D ( 'NONE', #195, #200, #199 ) ;
#178 = CARTESIAN_POINT ( 'NONE',  ( 3.061616997868366900E-016, -6.000000000000005300, -2.499999999999987100 ) ) ;
#179 = CARTESIAN_POINT ( 'NONE',  ( 6.500000000000001800, -4.000000000000020400, 10.00000000000000000 ) ) ;
#180 = LINE ( 'NONE', #179, #221 ) ;
#181 = CARTESIAN_POINT ( 'NONE',  ( -6.500000000000000000, 0.0000000000000000000, 10.00000000000000000 ) ) ;
#182 = DIRECTION ( 'NONE',  ( -4.336808689941994100E-016, 1.000000000000000000, -0.0000000000000000000 ) ) ;
#183 = VECTOR ( 'NONE', #182, 1000.000000000000000 ) ;
#184 = CARTESIAN_POINT ( 'NONE',  ( 6.500000000000000000, 1.591988259969090200E-015, 10.00000000000000000 ) ) ;
#185 = DIRECTION ( 'NONE',  ( -0.7071067811865436900, 0.7071067811865513500, 0.0000000000000000000 ) ) ;
#186 = LINE ( 'NONE', #184, #189 ) ;
#187 = DIRECTION ( 'NONE',  ( 0.7071067811865513500, 0.7071067811865436900, -0.0000000000000000000 ) ) ;
#188 = CARTESIAN_POINT ( 'NONE',  ( 6.500000000000001800, -4.000000000000020400, 10.00000000000000000 ) ) ;
#189 = VECTOR ( 'NONE', #225, 1000.000000000000000 ) ;
#190 = LINE ( 'NONE', #191, #192 ) ;
#191 = CARTESIAN_POINT ( 'NONE',  ( 6.500000000000001800, -4.000000000000020400, -10.00000000000000000 ) ) ;
#192 = VECTOR ( 'NONE', #193, 1000.000000000000000 ) ;
#193 = DIRECTION ( 'NONE',  ( 0.7071067811865513500, 0.7071067811865436900, -0.0000000000000000000 ) ) ;
#194 = FACE_BOUND ( 'NONE', #48, .T. ) ;
#195 = CARTESIAN_POINT ( 'NONE',  ( 0.0000000000000000000, 1.249139735130297400E-015, 0.0000000000000000000 ) ) ;
#196 = CARTESIAN_POINT ( 'NONE',  ( 0.0000000000000000000, 1.249139735130297400E-015, 2.499999999999988500 ) ) ;
#197 = PLANE ( 'NONE',  #206 ) ;
#198 = CARTESIAN_POINT ( 'NONE',  ( 6.500000000000000000, 1.591988259969090200E-015, 10.00000000000000000 ) ) ;
#199 = DIRECTION ( 'NONE',  ( 0.0000000000000000000, 0.0000000000000000000, 1.000000000000000000 ) ) ;
#200 = DIRECTION ( 'NONE',  ( -0.0000000000000000000, 1.000000000000000000, -0.0000000000000000000 ) ) ;
#201 = CARTESIAN_POINT ( 'NONE',  ( 6.500000000000001800, -4.000000000000020400, 10.00000000000000000 ) ) ;
#202 = DIRECTION ( 'NONE',  ( -1.000000000000000000, -4.336808689941994100E-016, 0.0000000000000000000 ) ) ;
#203 = PLANE ( 'NONE',  #174 ) ;
#204 = FACE_OUTER_BOUND ( 'NONE', #94, .T. ) ;
#205 = DIRECTION ( 'NONE',  ( 4.336808689941994100E-016, -1.000000000000000000, 0.0000000000000000000 ) ) ;
#206 = AXIS2_PLACEMENT_3D ( 'NONE', #172, #202, #205 ) ;
#207 = DIRECTION ( 'NONE',  ( 1.000000000000000000, 9.637352644315595200E-017, 0.0000000000000000000 ) ) ;
#208 = FACE_OUTER_BOUND ( 'NONE', #28, .T. ) ;
#209 = CARTESIAN_POINT ( 'NONE',  ( -6.500000000000000000, -4.000000000000022200, 10.00000000000000000 ) ) ;
#210 = LINE ( 'NONE', #168, #167 ) ;
#211 = DIRECTION ( 'NONE',  ( 0.7071067811865514600, -0.7071067811865435800, 0.0000000000000000000 ) ) ;
#212 = CIRCLE ( 'NONE', #177, 2.499999999999988500 ) ;
#213 = PLANE ( 'NONE',  #224 ) ;
#214 = CARTESIAN_POINT ( 'NONE',  ( 6.500000000000001800, -4.000000000000020400, -10.00000000000000000 ) ) ;
#215 = FACE_OUTER_BOUND ( 'NONE', #29, .T. ) ;
#216 = LINE ( 'NONE', #198, #183 ) ;
#217 = DIRECTION ( 'NONE',  ( 1.224606353822377300E-016, -1.000000000000000000, 0.0000000000000000000 ) ) ;
#218 = FACE_OUTER_BOUND ( 'NONE', #116, .T. ) ;
#219 = LINE ( 'NONE', #223, #222 ) ;
#220 = DIRECTION ( 'NONE',  ( -0.0000000000000000000, -0.0000000000000000000, -1.000000000000000000 ) ) ;
#221 = VECTOR ( 'NONE', #220, 1000.000000000000000 ) ;
#222 = VECTOR ( 'NONE', #207, 1000.000000000000000 ) ;
#223 = CARTESIAN_POINT ( 'NONE',  ( -4.499999999999999100, -6.000000000000000000, 10.00000000000000000 ) ) ;
#224 = AXIS2_PLACEMENT_3D ( 'NONE', #201, #185, #226 ) ;
#225 = DIRECTION ( 'NONE',  ( -0.0000000000000000000, -0.0000000000000000000, -1.000000000000000000 ) ) ;
#226 = DIRECTION ( 'NONE',  ( -0.7071067811865513500, -0.7071067811865436900, 0.0000000000000000000 ) ) ;
#227 = SECURITY_CLASSIFICATION ( '', '', #115 ) ;
#228 = CC_DESIGN_PERSON_AND_ORGANIZATION_ASSIGNMENT ( #230, #231, ( #227 ) ) ;
#229 = CC_DESIGN_APPROVAL ( #373, ( #227 ) ) ;
#230 = PERSON_AND_ORGANIZATION ( #355, #362 ) ;
#231 = PERSON_AND_ORGANIZATION_ROLE ( 'classification_officer' ) ;
#232 = DIRECTION ( 'NONE',  ( 0.0000000000000000000, 0.0000000000000000000, 1.000000000000000000 ) ) ;
#233 = DIRECTION ( 'NONE',  ( -0.0000000000000000000, 1.000000000000000000, -0.0000000000000000000 ) ) ;
#234 = CARTESIAN_POINT ( 'NONE',  ( 0.0000000000000000000, -6.000000000000005300, 0.0000000000000000000 ) ) ;
#235 = AXIS2_PLACEMENT_3D ( 'NONE', #234, #233, #232 ) ;
#236 = CIRCLE ( 'NONE', #235, 2.499999999999987100 ) ;
#237 = LINE ( 'NONE', #8, #92 ) ;
#238 = DIRECTION ( 'NONE',  ( -0.0000000000000000000, -0.0000000000000000000, -1.000000000000000000 ) ) ;
#239 = VECTOR ( 'NONE', #238, 1000.000000000000000 ) ;
#240 = LINE ( 'NONE', #248, #239 ) ;
#241 = COORDINATED_UNIVERSAL_TIME_OFFSET ( 1, 0, .AHEAD. ) ;
#242 = DIRECTION ( 'NONE',  ( 0.0000000000000000000, -1.000000000000000000, 0.0000000000000000000 ) ) ;
#243 = VECTOR ( 'NONE', #242, 1000.000000000000000 ) ;
#244 = LINE ( 'NONE', #253, #243 ) ;
#245 = DATE_TIME_ROLE ( 'classification_date' ) ;
#246 = DATE_AND_TIME ( #247, #257 ) ;
#247 = CALENDAR_DATE ( 2013, 25, 1 ) ;
#248 = CARTESIAN_POINT ( 'NONE',  ( -6.500000000000000000, -4.000000000000022200, 10.00000000000000000 ) ) ;
#249 = CC_DESIGN_DATE_AND_TIME_ASSIGNMENT ( #246, #245, ( #227 ) ) ;
#250 = DIRECTION ( 'NONE',  ( -0.0000000000000000000, 1.000000000000000000, -0.0000000000000000000 ) ) ;
#251 = VECTOR ( 'NONE', #250, 1000.000000000000000 ) ;
#252 = CARTESIAN_POINT ( 'NONE',  ( 3.061616997868367400E-016, 0.0000000000000000000, -2.499999999999987600 ) ) ;
#253 = CARTESIAN_POINT ( 'NONE',  ( -6.500000000000000000, 0.0000000000000000000, -10.00000000000000000 ) ) ;
#254 = LINE ( 'NONE', #252, #251 ) ;
#255 = CARTESIAN_POINT ( 'NONE',  ( -6.500000000000000000, 0.0000000000000000000, 10.00000000000000000 ) ) ;
#256 = LINE ( 'NONE', #255, #49 ) ;
#257 = LOCAL_TIME ( 10, 8, 45.00000000000000000, #241 ) ;
#258 = ADVANCED_BREP_SHAPE_REPRESENTATION ( '084.302.042', ( #54, #83 ), #261 ) ;
#259 = DIRECTION ( 'NONE',  ( 1.000000000000000000, 0.0000000000000000000, 0.0000000000000000000 ) ) ;
#260 = FACE_OUTER_BOUND ( 'NONE', #70, .T. ) ;
#261 =( GEOMETRIC_REPRESENTATION_CONTEXT ( 3 ) GLOBAL_UNCERTAINTY_ASSIGNED_CONTEXT ( ( #293 ) ) GLOBAL_UNIT_ASSIGNED_CONTEXT ( ( #309, #265, #314 ) ) REPRESENTATION_CONTEXT ( 'NONE', 'WORKASPACE' ) );
#262 = DIRECTION ( 'NONE',  ( 1.000000000000000000, 0.0000000000000000000, 0.0000000000000000000 ) ) ;
#263 = DIRECTION ( 'NONE',  ( -0.0000000000000000000, 0.0000000000000000000, 1.000000000000000000 ) ) ;
#264 = CARTESIAN_POINT ( 'NONE',  ( -6.500000000000000000, -6.000000000000000000, 10.00000000000000000 ) ) ;
#265 =( NAMED_UNIT ( * ) PLANE_ANGLE_UNIT ( ) SI_UNIT ( $, .RADIAN. ) );
#266 = CARTESIAN_POINT ( 'NONE',  ( 4.500000000000000900, -5.999999999999999100, -10.00000000000000000 ) ) ;
#267 = LINE ( 'NONE', #271, #270 ) ;
#268 = DIRECTION ( 'NONE',  ( -0.0000000000000000000, 1.000000000000000000, -0.0000000000000000000 ) ) ;
#269 = DIRECTION ( 'NONE',  ( 0.7071067811865514600, -0.7071067811865435800, 0.0000000000000000000 ) ) ;
#270 = VECTOR ( 'NONE', #269, 1000.000000000000000 ) ;
#271 = CARTESIAN_POINT ( 'NONE',  ( -6.500000000000000000, -4.000000000000022200, -10.00000000000000000 ) ) ;
#272 = LINE ( 'NONE', #280, #278 ) ;
#273 = AXIS2_PLACEMENT_3D ( 'NONE', #295, #312, #297 ) ;
#274 = AXIS2_PLACEMENT_3D ( 'NONE', #291, #288, #286 ) ;
#275 = DIRECTION ( 'NONE',  ( -0.0000000000000000000, -0.0000000000000000000, -1.000000000000000000 ) ) ;
#276 = DIRECTION ( 'NONE',  ( -1.000000000000000000, -1.224606353822377300E-016, -0.0000000000000000000 ) ) ;
#277 = VECTOR ( 'NONE', #276, 1000.000000000000000 ) ;
#278 = VECTOR ( 'NONE', #275, 1000.000000000000000 ) ;
#279 = DIRECTION ( 'NONE',  ( -0.0000000000000000000, 0.0000000000000000000, 1.000000000000000000 ) ) ;
#280 = CARTESIAN_POINT ( 'NONE',  ( 4.500000000000000900, -5.999999999999999100, 10.00000000000000000 ) ) ;
#281 = AXIS2_PLACEMENT_3D ( 'NONE', #308, #268, #284 ) ;
#282 = CYLINDRICAL_SURFACE ( 'NONE', #281, 2.499999999999987600 ) ;
#283 = CARTESIAN_POINT ( 'NONE',  ( -6.500000000000000000, -6.000000000000000000, -10.00000000000000000 ) ) ;
#284 = DIRECTION ( 'NONE',  ( 0.0000000000000000000, 0.0000000000000000000, 1.000000000000000000 ) ) ;
#285 = PLANE ( 'NONE',  #273 ) ;
#286 = DIRECTION ( 'NONE',  ( 0.0000000000000000000, 0.0000000000000000000, 1.000000000000000000 ) ) ;
#287 = FACE_OUTER_BOUND ( 'NONE', #159, .T. ) ;
#288 = DIRECTION ( 'NONE',  ( -0.0000000000000000000, 1.000000000000000000, -0.0000000000000000000 ) ) ;
#289 = CARTESIAN_POINT ( 'NONE',  ( -6.500000000000000000, 0.0000000000000000000, 10.00000000000000000 ) ) ;
#290 = LINE ( 'NONE', #289, #277 ) ;
#291 = CARTESIAN_POINT ( 'NONE',  ( 0.0000000000000000000, 0.0000000000000000000, 0.0000000000000000000 ) ) ;
#292 = FACE_OUTER_BOUND ( 'NONE', #122, .T. ) ;
#293 = UNCERTAINTY_MEASURE_WITH_UNIT (LENGTH_MEASURE( 1.000000000000000100E-005 ), #309, 'distance_accuracy_value', 'NONE');
#294 = DIRECTION ( 'NONE',  ( -0.0000000000000000000, -0.0000000000000000000, -1.000000000000000000 ) ) ;
#295 = CARTESIAN_POINT ( 'NONE',  ( -6.500000000000000000, -4.000000000000022200, 10.00000000000000000 ) ) ;
#296 = FACE_OUTER_BOUND ( 'NONE', #90, .T. ) ;
#297 = DIRECTION ( 'NONE',  ( -0.7071067811865513500, 0.7071067811865435800, 0.0000000000000000000 ) ) ;
#298 = FACE_OUTER_BOUND ( 'NONE', #56, .T. ) ;
#299 = VECTOR ( 'NONE', #294, 1000.000000000000000 ) ;
#300 = PLANE ( 'NONE',  #310 ) ;
#301 = CARTESIAN_POINT ( 'NONE',  ( -6.500000000000000000, 0.0000000000000000000, -10.00000000000000000 ) ) ;
#302 = VECTOR ( 'NONE', #304, 1000.000000000000000 ) ;
#303 = LINE ( 'NONE', #301, #302 ) ;
#304 = DIRECTION ( 'NONE',  ( -1.000000000000000000, -1.224606353822377300E-016, -0.0000000000000000000 ) ) ;
#305 = PLANE ( 'NONE',  #311 ) ;
#306 = CARTESIAN_POINT ( 'NONE',  ( -4.499999999999999100, -6.000000000000000000, 10.00000000000000000 ) ) ;
#307 = LINE ( 'NONE', #306, #299 ) ;
#308 = CARTESIAN_POINT ( 'NONE',  ( 0.0000000000000000000, 0.0000000000000000000, 0.0000000000000000000 ) ) ;
#309 =( LENGTH_UNIT ( ) NAMED_UNIT ( * ) SI_UNIT ( .MILLI., .METRE. ) );
#310 = AXIS2_PLACEMENT_3D ( 'NONE', #283, #279, #259 ) ;
#311 = AXIS2_PLACEMENT_3D ( 'NONE', #264, #263, #262 ) ;
#312 = DIRECTION ( 'NONE',  ( 0.7071067811865436900, 0.7071067811865514600, -0.0000000000000000000 ) ) ;
#313 = CYLINDRICAL_SURFACE ( 'NONE', #274, 2.499999999999987600 ) ;
#314 =( NAMED_UNIT ( * ) SI_UNIT ( $, .STERADIAN. ) SOLID_ANGLE_UNIT ( ) );
#315 = CC_DESIGN_PERSON_AND_ORGANIZATION_ASSIGNMENT ( #316, #363, ( #353 ) ) ;
#316 = PERSON_AND_ORGANIZATION ( #355, #362 ) ;
#317 = APPLICATION_PROTOCOL_DEFINITION ( 'international standard', 'config_control_design', 1994, #318 ) ;
#318 = APPLICATION_CONTEXT ( 'configuration controlled 3d designs of mechanical parts and assemblies' ) ;
#319 = APPROVAL_ROLE ( '' ) ;
#320 = APPROVAL_STATUS ( 'not_yet_approved' ) ;
#321 = PERSON_AND_ORGANIZATION ( #355, #362 ) ;
#322 = PRODUCT_DEFINITION ( 'NON CONOSCIUTO', '', #351, #323 ) ;
#323 = DESIGN_CONTEXT ( 'detailed design', #318, 'design' ) ;
#324 = LOCAL_TIME ( 10, 8, 45.00000000000000000, #325 ) ;
#325 = COORDINATED_UNIVERSAL_TIME_OFFSET ( 1, 0, .AHEAD. ) ;
#326 = APPROVAL_PERSON_ORGANIZATION ( #321, #327, #319 ) ;
#327 = APPROVAL ( #320, 'NON SPECIFICATO' ) ;
#328 = PERSON_AND_ORGANIZATION ( #355, #362 ) ;
#329 = CC_DESIGN_PERSON_AND_ORGANIZATION_ASSIGNMENT ( #331, #330, ( #351 ) ) ;
#330 = PERSON_AND_ORGANIZATION_ROLE ( 'creator' ) ;
#331 = PERSON_AND_ORGANIZATION ( #355, #362 ) ;
#332 = CC_DESIGN_APPROVAL ( #348, ( #351 ) ) ;
#333 = APPROVAL_DATE_TIME ( #334, #348 ) ;
#334 = DATE_AND_TIME ( #343, #344 ) ;
#335 = CC_DESIGN_DATE_AND_TIME_ASSIGNMENT ( #337, #336, ( #322 ) ) ;
#336 = DATE_TIME_ROLE ( 'creation_date' ) ;
#337 = DATE_AND_TIME ( #338, #360 ) ;
#338 = CALENDAR_DATE ( 2013, 25, 1 ) ;
#339 = CC_DESIGN_APPROVAL ( #327, ( #322 ) ) ;
#340 = APPROVAL_DATE_TIME ( #341, #327 ) ;
#341 = DATE_AND_TIME ( #342, #324 ) ;
#342 = CALENDAR_DATE ( 2013, 25, 1 ) ;
#343 = CALENDAR_DATE ( 2013, 25, 1 ) ;
#344 = LOCAL_TIME ( 10, 8, 45.00000000000000000, #345 ) ;
#345 = COORDINATED_UNIVERSAL_TIME_OFFSET ( 1, 0, .AHEAD. ) ;
#346 = APPROVAL_PERSON_ORGANIZATION ( #350, #348, #347 ) ;
#347 = APPROVAL_ROLE ( '' ) ;
#348 = APPROVAL ( #349, 'NON SPECIFICATO' ) ;
#349 = APPROVAL_STATUS ( 'not_yet_approved' ) ;
#350 = PERSON_AND_ORGANIZATION ( #355, #362 ) ;
#351 = PRODUCT_DEFINITION_FORMATION_WITH_SPECIFIED_SOURCE ( 'TUTTO', '', #353, .NOT_KNOWN. ) ;
#352 = APPLICATION_PROTOCOL_DEFINITION ( 'international standard', 'config_control_design', 1994, #359 ) ;
#353 = PRODUCT ( '084.302.042', '084.302.042', '', ( #354 ) ) ;
#354 = MECHANICAL_CONTEXT ( 'NONE', #359, 'mechanical' ) ;
#355 = PERSON ( 'NON SPECIFICATO', 'NON SPECIFICATO', 'NON SPECIFICATO', ('NON SPECIFICATO'), ('NON SPECIFICATO'), ('NON SPECIFICATO') ) ;
#356 = CC_DESIGN_PERSON_AND_ORGANIZATION_ASSIGNMENT ( #358, #357, ( #322 ) ) ;
#357 = PERSON_AND_ORGANIZATION_ROLE ( 'creator' ) ;
#358 = PERSON_AND_ORGANIZATION ( #355, #362 ) ;
#359 = APPLICATION_CONTEXT ( 'configuration controlled 3d designs of mechanical parts and assemblies' ) ;
#360 = LOCAL_TIME ( 10, 8, 45.00000000000000000, #361 ) ;
#361 = COORDINATED_UNIVERSAL_TIME_OFFSET ( 1, 0, .AHEAD. ) ;
#362 = ORGANIZATION ( 'NON SPECIFICATO', 'NON SPECIFICATO', '' ) ;
#363 = PERSON_AND_ORGANIZATION_ROLE ( 'design_owner' ) ;
#364 = APPROVAL_PERSON_ORGANIZATION ( #367, #373, #372 ) ;
#365 = LOCAL_TIME ( 10, 8, 45.00000000000000000, #366 ) ;
#366 = COORDINATED_UNIVERSAL_TIME_OFFSET ( 1, 0, .AHEAD. ) ;
#367 = PERSON_AND_ORGANIZATION ( #355, #362 ) ;
#368 = APPROVAL_STATUS ( 'not_yet_approved' ) ;
#369 = APPROVAL_DATE_TIME ( #370, #373 ) ;
#370 = DATE_AND_TIME ( #371, #365 ) ;
#371 = CALENDAR_DATE ( 2013, 25, 1 ) ;
#372 = APPROVAL_ROLE ( '' ) ;
#373 = APPROVAL ( #368, 'NON SPECIFICATO' ) ;
#374 = PRODUCT_DEFINITION_SHAPE ( 'NONE', 'NONE',  #322 ) ;
#375 = PRODUCT_RELATED_PRODUCT_CATEGORY ( 'detail', '', ( #353 ) ) ;
#376 = CC_DESIGN_SECURITY_CLASSIFICATION ( #227, ( #351 ) ) ;
#377 = SHAPE_DEFINITION_REPRESENTATION ( #374, #258 ) ;
ENDSEC;
END-ISO-10303-21;
