ISO-10303-21;
HEADER;
FILE_DESCRIPTION (( 'STEP AP203' ),
    '1' );
FILE_NAME ('084.302.015.STEP',
    '2015-02-10T13:07:41',
    ( '' ),
    ( '' ),
    'SwSTEP 2.0',
    'SolidWorks 2012',
    '' );
FILE_SCHEMA (( 'CONFIG_CONTROL_DESIGN' ));
ENDSEC;

DATA;
#1 = ORIENTED_EDGE ( 'NONE', *, *, #349, .F. ) ;
#2 = CIRCLE ( 'NONE', #42, 7.726663011208065000 ) ;
#3 = CIRCLE ( 'NONE', #41, 7.726663011208065900 ) ;
#4 = LINE ( 'NONE', #98, #5 ) ;
#5 = VECTOR ( 'NONE', #111, 1000.000000000000000 ) ;
#6 = LINE ( 'NONE', #94, #8 ) ;
#7 = CIRCLE ( 'NONE', #40, 2.499999999999999600 ) ;
#8 = VECTOR ( 'NONE', #93, 1000.000000000000000 ) ;
#9 = ADVANCED_FACE ( 'NONE', ( #261 ), #332, .F. ) ;
#10 = ADVANCED_FACE ( 'NONE', ( #329 ), #330, .T. ) ;
#11 = ADVANCED_FACE ( 'NONE', ( #334 ), #124, .F. ) ;
#12 = ADVANCED_FACE ( 'NONE', ( #328 ), #129, .F. ) ;
#13 = ADVANCED_FACE ( 'NONE', ( #333 ), #147, .F. ) ;
#14 = ADVANCED_FACE ( 'NONE', ( #335 ), #178, .F. ) ;
#15 = ADVANCED_FACE ( 'NONE', ( #336, #290 ), #176, .T. ) ;
#16 = ADVANCED_FACE ( 'NONE', ( #289 ), #291, .T. ) ;
#17 = ADVANCED_FACE ( 'NONE', ( #295, #293 ), #92, .F. ) ;
#18 = ADVANCED_FACE ( 'NONE', ( #294 ), #299, .F. ) ;
#19 = ORIENTED_EDGE ( 'NONE', *, *, #351, .F. ) ;
#20 = CC_DESIGN_SECURITY_CLASSIFICATION ( #25, ( #30 ) ) ;
#21 = CC_DESIGN_APPROVAL ( #22, ( #25 ) ) ;
#22 = APPROVAL ( #239, 'NON SPECIFICATO' ) ;
#23 = CC_DESIGN_DATE_AND_TIME_ASSIGNMENT ( #380, #240, ( #25 ) ) ;
#24 = CC_DESIGN_PERSON_AND_ORGANIZATION_ASSIGNMENT ( #210, #241, ( #25 ) ) ;
#25 = SECURITY_CLASSIFICATION ( '', '', #236 ) ;
#26 = CC_DESIGN_PERSON_AND_ORGANIZATION_ASSIGNMENT ( #209, #237, ( #30 ) ) ;
#27 = CC_DESIGN_PERSON_AND_ORGANIZATION_ASSIGNMENT ( #208, #233, ( #30 ) ) ;
#28 = CC_DESIGN_APPROVAL ( #29, ( #30 ) ) ;
#29 = APPROVAL ( #230, 'NON SPECIFICATO' ) ;
#30 = PRODUCT_DEFINITION_FORMATION_WITH_SPECIFIED_SOURCE ( 'TUTTO', '', #228, .NOT_KNOWN. ) ;
#31 = CC_DESIGN_DATE_AND_TIME_ASSIGNMENT ( #278, #231, ( #35 ) ) ;
#32 = CC_DESIGN_PERSON_AND_ORGANIZATION_ASSIGNMENT ( #274, #235, ( #35 ) ) ;
#33 = CC_DESIGN_APPROVAL ( #34, ( #35 ) ) ;
#34 = APPROVAL ( #244, 'NON SPECIFICATO' ) ;
#35 = PRODUCT_DEFINITION ( 'NON CONOSCIUTO', '', #30, #184 ) ;
#36 = CC_DESIGN_PERSON_AND_ORGANIZATION_ASSIGNMENT ( #266, #245, ( #228 ) ) ;
#37 = AXIS2_PLACEMENT_3D ( 'NONE', #86, #110, #109 ) ;
#38 = PRODUCT_RELATED_PRODUCT_CATEGORY ( 'detail', '', ( #228 ) ) ;
#39 =( GEOMETRIC_REPRESENTATION_CONTEXT ( 3 ) GLOBAL_UNCERTAINTY_ASSIGNED_CONTEXT ( ( #374 ) ) GLOBAL_UNIT_ASSIGNED_CONTEXT ( ( #69, #67, #66 ) ) REPRESENTATION_CONTEXT ( 'NONE', 'WORKASPACE' ) );
#40 = AXIS2_PLACEMENT_3D ( 'NONE', #73, #72, #71 ) ;
#41 = AXIS2_PLACEMENT_3D ( 'NONE', #81, #79, #78 ) ;
#42 = AXIS2_PLACEMENT_3D ( 'NONE', #90, #89, #87 ) ;
#43 = AXIS2_PLACEMENT_3D ( 'NONE', #106, #105, #104 ) ;
#44 = AXIS2_PLACEMENT_3D ( 'NONE', #121, #117, #115 ) ;
#45 = AXIS2_PLACEMENT_3D ( 'NONE', #137, #135, #134 ) ;
#46 = AXIS2_PLACEMENT_3D ( 'NONE', #144, #143, #142 ) ;
#47 = AXIS2_PLACEMENT_3D ( 'NONE', #151, #150, #149 ) ;
#48 = AXIS2_PLACEMENT_3D ( 'NONE', #155, #154, #153 ) ;
#49 = AXIS2_PLACEMENT_3D ( 'NONE', #165, #163, #162 ) ;
#50 = AXIS2_PLACEMENT_3D ( 'NONE', #169, #168, #167 ) ;
#51 = AXIS2_PLACEMENT_3D ( 'NONE', #175, #173, #172 ) ;
#52 = AXIS2_PLACEMENT_3D ( 'NONE', #122, #107, #91 ) ;
#53 = AXIS2_PLACEMENT_3D ( 'NONE', #85, #96, #95 ) ;
#54 = AXIS2_PLACEMENT_3D ( 'NONE', #161, #88, #112 ) ;
#55 = AXIS2_PLACEMENT_3D ( 'NONE', #183, #179, #177 ) ;
#56 = AXIS2_PLACEMENT_3D ( 'NONE', #170, #84, #80 ) ;
#57 = AXIS2_PLACEMENT_3D ( 'NONE', #160, #83, #158 ) ;
#58 = AXIS2_PLACEMENT_3D ( 'NONE', #127, #140, #136 ) ;
#59 = AXIS2_PLACEMENT_3D ( 'NONE', #68, #159, #156 ) ;
#60 = AXIS2_PLACEMENT_3D ( 'NONE', #70, #126, #148 ) ;
#61 = APPLICATION_CONTEXT ( 'configuration controlled 3d designs of mechanical parts and assemblies' ) ;
#62 = CARTESIAN_POINT ( 'NONE',  ( 4.500000000000000000, 0.0000000000000000000, -4.499999999999999100 ) ) ;
#63 = CARTESIAN_POINT ( 'NONE',  ( 0.0000000000000000000, 0.0000000000000000000, 2.499999999999999600 ) ) ;
#64 = CARTESIAN_POINT ( 'NONE',  ( 4.500000000000000000, 0.0000000000000000000, 4.500000000000000900 ) ) ;
#65 = APPLICATION_PROTOCOL_DEFINITION ( 'international standard', 'config_control_design', 1994, #61 ) ;
#66 =( NAMED_UNIT ( * ) SI_UNIT ( $, .STERADIAN. ) SOLID_ANGLE_UNIT ( ) );
#67 =( NAMED_UNIT ( * ) PLANE_ANGLE_UNIT ( ) SI_UNIT ( $, .RADIAN. ) );
#68 = CARTESIAN_POINT ( 'NONE',  ( 4.500000000000000000, 4.000000000000000000, 4.500000000000000900 ) ) ;
#69 =( LENGTH_UNIT ( ) NAMED_UNIT ( * ) SI_UNIT ( .MILLI., .METRE. ) );
#70 = CARTESIAN_POINT ( 'NONE',  ( -4.500000000000000000, 4.000000000000000000, 4.500000000000000900 ) ) ;
#71 = DIRECTION ( 'NONE',  ( 0.0000000000000000000, 0.0000000000000000000, 1.000000000000000000 ) ) ;
#72 = DIRECTION ( 'NONE',  ( -0.0000000000000000000, 1.000000000000000000, -0.0000000000000000000 ) ) ;
#73 = CARTESIAN_POINT ( 'NONE',  ( 0.0000000000000000000, 0.0000000000000000000, 0.0000000000000000000 ) ) ;
#74 = CARTESIAN_POINT ( 'NONE',  ( 4.500000000000000000, 2.052947416670848100, -4.499999999999999100 ) ) ;
#75 = CARTESIAN_POINT ( 'NONE',  ( -4.500000000000000000, 0.0000000000000000000, -4.499999999999999100 ) ) ;
#76 = CARTESIAN_POINT ( 'NONE',  ( -3.500000000000000000, 4.000000000000000000, 0.0000000000000000000 ) ) ;
#77 = DIRECTION ( 'NONE',  ( -1.000000000000000000, 0.0000000000000000000, 0.0000000000000000000 ) ) ;
#78 = DIRECTION ( 'NONE',  ( 1.000000000000000000, 1.796090729941729400E-015, 0.0000000000000000000 ) ) ;
#79 = DIRECTION ( 'NONE',  ( -0.0000000000000000000, -0.0000000000000000000, -1.000000000000000000 ) ) ;
#80 = DIRECTION ( 'NONE',  ( -1.000000000000000000, 0.0000000000000000000, 0.0000000000000000000 ) ) ;
#81 = CARTESIAN_POINT ( 'NONE',  ( 0.0000000000000000000, -4.228081264108351600, -4.499999999999999100 ) ) ;
#82 = DIRECTION ( 'NONE',  ( -0.0000000000000000000, 1.000000000000000000, -0.0000000000000000000 ) ) ;
#83 = DIRECTION ( 'NONE',  ( 0.0000000000000000000, -1.000000000000000000, 0.0000000000000000000 ) ) ;
#84 = DIRECTION ( 'NONE',  ( 0.0000000000000000000, 0.0000000000000000000, 1.000000000000000000 ) ) ;
#85 = CARTESIAN_POINT ( 'NONE',  ( 0.0000000000000000000, 4.000000000000000000, 0.0000000000000000000 ) ) ;
#86 = CARTESIAN_POINT ( 'NONE',  ( 0.0000000000000000000, 0.0000000000000000000, 0.0000000000000000000 ) ) ;
#87 = DIRECTION ( 'NONE',  ( 0.0000000000000000000, 0.0000000000000000000, 1.000000000000000000 ) ) ;
#88 = DIRECTION ( 'NONE',  ( 0.0000000000000000000, -1.000000000000000000, 0.0000000000000000000 ) ) ;
#89 = DIRECTION ( 'NONE',  ( 1.000000000000000000, -0.0000000000000000000, -0.0000000000000000000 ) ) ;
#90 = CARTESIAN_POINT ( 'NONE',  ( 4.500000000000000000, -4.228081264108351600, 0.0000000000000000000 ) ) ;
#91 = DIRECTION ( 'NONE',  ( 0.0000000000000000000, 0.0000000000000000000, 1.000000000000000000 ) ) ;
#92 = PLANE ( 'NONE',  #54 ) ;
#93 = DIRECTION ( 'NONE',  ( -1.000000000000000000, -0.0000000000000000000, -0.0000000000000000000 ) ) ;
#94 = CARTESIAN_POINT ( 'NONE',  ( -4.500000000000000000, 0.0000000000000000000, -4.499999999999999100 ) ) ;
#95 = DIRECTION ( 'NONE',  ( 0.0000000000000000000, 0.0000000000000000000, 1.000000000000000000 ) ) ;
#96 = DIRECTION ( 'NONE',  ( -0.0000000000000000000, 1.000000000000000000, -0.0000000000000000000 ) ) ;
#97 = DIRECTION ( 'NONE',  ( -0.0000000000000000000, -1.000000000000000000, -0.0000000000000000000 ) ) ;
#98 = CARTESIAN_POINT ( 'NONE',  ( 4.500000000000000000, 0.0000000000000000000, 4.500000000000000900 ) ) ;
#99 = CARTESIAN_POINT ( 'NONE',  ( -4.500000000000000900, 3.498581747099713800, 0.0000000000000000000 ) ) ;
#100 = CARTESIAN_POINT ( 'NONE',  ( 0.0000000000000000000, 4.000000000000000000, 0.0000000000000000000 ) ) ;
#101 = CARTESIAN_POINT ( 'NONE',  ( -4.500000000000000000, 2.052947416670848100, -4.499999999999999100 ) ) ;
#102 = CARTESIAN_POINT ( 'NONE',  ( 4.500000000000000000, 4.000000000000000000, -4.499999999999999100 ) ) ;
#103 = CARTESIAN_POINT ( 'NONE',  ( -4.500000000000000000, 0.0000000000000000000, 4.500000000000000900 ) ) ;
#104 = DIRECTION ( 'NONE',  ( 0.0000000000000000000, 0.0000000000000000000, -1.000000000000000000 ) ) ;
#105 = DIRECTION ( 'NONE',  ( -1.000000000000000000, 0.0000000000000000000, -0.0000000000000000000 ) ) ;
#106 = CARTESIAN_POINT ( 'NONE',  ( -4.500000000000000000, -4.228081264108351600, 0.0000000000000000000 ) ) ;
#107 = DIRECTION ( 'NONE',  ( -0.0000000000000000000, 1.000000000000000000, -0.0000000000000000000 ) ) ;
#108 = MECHANICAL_CONTEXT ( 'NONE', #61, 'mechanical' ) ;
#109 = DIRECTION ( 'NONE',  ( 1.000000000000000000, 0.0000000000000000000, 0.0000000000000000000 ) ) ;
#110 = DIRECTION ( 'NONE',  ( 0.0000000000000000000, 0.0000000000000000000, 1.000000000000000000 ) ) ;
#111 = DIRECTION ( 'NONE',  ( 0.0000000000000000000, 0.0000000000000000000, -1.000000000000000000 ) ) ;
#112 = DIRECTION ( 'NONE',  ( 0.0000000000000000000, -0.0000000000000000000, -1.000000000000000000 ) ) ;
#113 = DIRECTION ( 'NONE',  ( -0.0000000000000000000, -0.0000000000000000000, 1.000000000000000000 ) ) ;
#114 = CARTESIAN_POINT ( 'NONE',  ( -4.500000000000000000, 0.0000000000000000000, 4.500000000000000900 ) ) ;
#115 = DIRECTION ( 'NONE',  ( -1.000000000000000000, 3.592181459883459700E-015, 0.0000000000000000000 ) ) ;
#116 = CARTESIAN_POINT ( 'NONE',  ( 4.500000000000000900, 3.498581747099713800, 5.510910596163088600E-016 ) ) ;
#117 = DIRECTION ( 'NONE',  ( -0.0000000000000000000, -0.0000000000000000000, 1.000000000000000000 ) ) ;
#118 = DIRECTION ( 'NONE',  ( 0.0000000000000000000, 0.0000000000000000000, -1.000000000000000000 ) ) ;
#119 = DIRECTION ( 'NONE',  ( 1.000000000000000000, -0.0000000000000000000, 0.0000000000000000000 ) ) ;
#120 = CARTESIAN_POINT ( 'NONE',  ( -4.500000000000000000, 2.052947416670847200, 4.500000000000000900 ) ) ;
#121 = CARTESIAN_POINT ( 'NONE',  ( 0.0000000000000000000, -4.228081264108351600, 4.500000000000000900 ) ) ;
#122 = CARTESIAN_POINT ( 'NONE',  ( 0.0000000000000000000, 4.000000000000000000, 0.0000000000000000000 ) ) ;
#123 = DIRECTION ( 'NONE',  ( -0.0000000000000000000, -1.000000000000000000, -0.0000000000000000000 ) ) ;
#124 = PLANE ( 'NONE',  #347 ) ;
#125 = CARTESIAN_POINT ( 'NONE',  ( -4.500000000000000000, 4.000000000000000000, 4.500000000000000900 ) ) ;
#126 = DIRECTION ( 'NONE',  ( 0.0000000000000000000, 0.0000000000000000000, -1.000000000000000000 ) ) ;
#127 = CARTESIAN_POINT ( 'NONE',  ( -4.500000000000000000, 4.000000000000000000, -4.499999999999999100 ) ) ;
#128 = DIRECTION ( 'NONE',  ( 1.000000000000000000, 0.0000000000000000000, 0.0000000000000000000 ) ) ;
#129 = PLANE ( 'NONE',  #60 ) ;
#130 = CARTESIAN_POINT ( 'NONE',  ( 4.500000000000000000, 4.000000000000000000, 4.500000000000000900 ) ) ;
#131 = CARTESIAN_POINT ( 'NONE',  ( -4.500000000000000000, 0.0000000000000000000, 4.500000000000000900 ) ) ;
#132 = DIRECTION ( 'NONE',  ( -0.0000000000000000000, -1.000000000000000000, -0.0000000000000000000 ) ) ;
#133 = CARTESIAN_POINT ( 'NONE',  ( -4.500000000000000000, 4.000000000000000000, -4.499999999999999100 ) ) ;
#134 = DIRECTION ( 'NONE',  ( -1.000000000000000000, 0.0000000000000000000, 0.0000000000000000000 ) ) ;
#135 = DIRECTION ( 'NONE',  ( -0.0000000000000000000, -0.0000000000000000000, -1.000000000000000000 ) ) ;
#136 = DIRECTION ( 'NONE',  ( 1.000000000000000000, 0.0000000000000000000, -0.0000000000000000000 ) ) ;
#137 = CARTESIAN_POINT ( 'NONE',  ( 0.0000000000000000000, -4.228081264108351600, 0.0000000000000000000 ) ) ;
#138 = CARTESIAN_POINT ( 'NONE',  ( 0.0000000000000000000, 4.000000000000000000, 2.499999999999999600 ) ) ;
#139 = DIRECTION ( 'NONE',  ( -0.0000000000000000000, -1.000000000000000000, -0.0000000000000000000 ) ) ;
#140 = DIRECTION ( 'NONE',  ( 0.0000000000000000000, 0.0000000000000000000, 1.000000000000000000 ) ) ;
#141 = CARTESIAN_POINT ( 'NONE',  ( 4.500000000000000000, 2.052947416670846300, 4.500000000000000900 ) ) ;
#142 = DIRECTION ( 'NONE',  ( 0.0000000000000000000, 2.694136094912594600E-015, 1.000000000000000000 ) ) ;
#143 = DIRECTION ( 'NONE',  ( 1.000000000000000000, -0.0000000000000000000, -0.0000000000000000000 ) ) ;
#144 = CARTESIAN_POINT ( 'NONE',  ( 4.500000000000000000, -4.228081264108351600, 0.0000000000000000000 ) ) ;
#145 = CARTESIAN_POINT ( 'NONE',  ( 0.0000000000000000000, -4.228081264108351600, 0.0000000000000000000 ) ) ;
#146 = CARTESIAN_POINT ( 'NONE',  ( 3.061616997868382600E-016, 4.000000000000000000, -2.499999999999999600 ) ) ;
#147 = PLANE ( 'NONE',  #59 ) ;
#148 = DIRECTION ( 'NONE',  ( -1.000000000000000000, 0.0000000000000000000, -0.0000000000000000000 ) ) ;
#149 = DIRECTION ( 'NONE',  ( 0.0000000000000000000, 0.0000000000000000000, 1.000000000000000000 ) ) ;
#150 = DIRECTION ( 'NONE',  ( -0.0000000000000000000, 1.000000000000000000, -0.0000000000000000000 ) ) ;
#151 = CARTESIAN_POINT ( 'NONE',  ( 0.0000000000000000000, 4.000000000000000000, 0.0000000000000000000 ) ) ;
#152 = CARTESIAN_POINT ( 'NONE',  ( -4.500000000000000000, 4.000000000000000000, 4.500000000000000900 ) ) ;
#153 = DIRECTION ( 'NONE',  ( 0.0000000000000000000, 0.0000000000000000000, 1.000000000000000000 ) ) ;
#154 = DIRECTION ( 'NONE',  ( -0.0000000000000000000, 1.000000000000000000, -0.0000000000000000000 ) ) ;
#155 = CARTESIAN_POINT ( 'NONE',  ( 0.0000000000000000000, 0.0000000000000000000, 0.0000000000000000000 ) ) ;
#156 = DIRECTION ( 'NONE',  ( 0.0000000000000000000, 0.0000000000000000000, 1.000000000000000000 ) ) ;
#157 = DIRECTION ( 'NONE',  ( 0.0000000000000000000, 0.0000000000000000000, 1.000000000000000000 ) ) ;
#158 = DIRECTION ( 'NONE',  ( 0.0000000000000000000, -0.0000000000000000000, -1.000000000000000000 ) ) ;
#159 = DIRECTION ( 'NONE',  ( -1.000000000000000000, 0.0000000000000000000, 0.0000000000000000000 ) ) ;
#160 = CARTESIAN_POINT ( 'NONE',  ( -4.500000000000000000, 0.0000000000000000000, -4.499999999999999100 ) ) ;
#161 = CARTESIAN_POINT ( 'NONE',  ( -4.500000000000000000, 4.000000000000000000, -4.499999999999999100 ) ) ;
#162 = DIRECTION ( 'NONE',  ( 0.0000000000000000000, 0.0000000000000000000, 1.000000000000000000 ) ) ;
#163 = DIRECTION ( 'NONE',  ( -0.0000000000000000000, 1.000000000000000000, -0.0000000000000000000 ) ) ;
#164 = CARTESIAN_POINT ( 'NONE',  ( 0.0000000000000000000, 4.000000000000000000, 2.499999999999999600 ) ) ;
#165 = CARTESIAN_POINT ( 'NONE',  ( 0.0000000000000000000, 4.000000000000000000, 0.0000000000000000000 ) ) ;
#166 = DIRECTION ( 'NONE',  ( -0.0000000000000000000, 1.000000000000000000, -0.0000000000000000000 ) ) ;
#167 = DIRECTION ( 'NONE',  ( 0.0000000000000000000, 3.592181459883459700E-015, -1.000000000000000000 ) ) ;
#168 = DIRECTION ( 'NONE',  ( -1.000000000000000000, 0.0000000000000000000, -0.0000000000000000000 ) ) ;
#169 = CARTESIAN_POINT ( 'NONE',  ( -4.500000000000000000, -4.228081264108351600, 0.0000000000000000000 ) ) ;
#170 = CARTESIAN_POINT ( 'NONE',  ( 0.0000000000000000000, -4.228081264108351600, 0.0000000000000000000 ) ) ;
#171 = DIRECTION ( 'NONE',  ( -0.0000000000000000000, 1.000000000000000000, -0.0000000000000000000 ) ) ;
#172 = DIRECTION ( 'NONE',  ( 1.000000000000000000, 0.0000000000000000000, 1.224646799147353200E-016 ) ) ;
#173 = DIRECTION ( 'NONE',  ( -1.224646799147353200E-016, 0.0000000000000000000, 1.000000000000000000 ) ) ;
#174 = DIRECTION ( 'NONE',  ( 0.0000000000000000000, 0.0000000000000000000, 1.000000000000000000 ) ) ;
#175 = CARTESIAN_POINT ( 'NONE',  ( 0.0000000000000000000, -4.228081264108351600, 0.0000000000000000000 ) ) ;
#176 = PLANE ( 'NONE',  #57 ) ;
#177 = DIRECTION ( 'NONE',  ( 0.0000000000000000000, 0.0000000000000000000, 1.000000000000000000 ) ) ;
#178 = PLANE ( 'NONE',  #58 ) ;
#179 = DIRECTION ( 'NONE',  ( -0.0000000000000000000, 1.000000000000000000, -0.0000000000000000000 ) ) ;
#180 = CARTESIAN_POINT ( 'NONE',  ( 3.500000000000000000, 4.000000000000000000, 6.048917878116385400E-016 ) ) ;
#181 = CARTESIAN_POINT ( 'NONE',  ( 3.061616997868382600E-016, 0.0000000000000000000, -2.499999999999999600 ) ) ;
#182 = CARTESIAN_POINT ( 'NONE',  ( 3.061616997868382600E-016, 4.000000000000000000, -2.499999999999999600 ) ) ;
#183 = CARTESIAN_POINT ( 'NONE',  ( 0.0000000000000000000, 4.000000000000000000, 0.0000000000000000000 ) ) ;
#184 = DESIGN_CONTEXT ( 'detailed design', #232, 'design' ) ;
#185 = PRODUCT_DEFINITION_SHAPE ( 'NONE', 'NONE',  #35 ) ;
#186 = ORIENTED_EDGE ( 'NONE', *, *, #359, .T. ) ;
#187 = CIRCLE ( 'NONE', #45, 8.941550273233993100 ) ;
#188 = LINE ( 'NONE', #133, #192 ) ;
#189 = LINE ( 'NONE', #138, #190 ) ;
#190 = VECTOR ( 'NONE', #171, 1000.000000000000000 ) ;
#191 = LINE ( 'NONE', #131, #193 ) ;
#192 = VECTOR ( 'NONE', #132, 1000.000000000000000 ) ;
#193 = VECTOR ( 'NONE', #128, 1000.000000000000000 ) ;
#194 = LINE ( 'NONE', #130, #197 ) ;
#195 = CIRCLE ( 'NONE', #44, 7.726663011208065000 ) ;
#196 = LINE ( 'NONE', #114, #199 ) ;
#197 = VECTOR ( 'NONE', #139, 1000.000000000000000 ) ;
#198 = CIRCLE ( 'NONE', #43, 7.726663011208065000 ) ;
#199 = VECTOR ( 'NONE', #113, 1000.000000000000000 ) ;
#200 = LINE ( 'NONE', #125, #202 ) ;
#201 = LINE ( 'NONE', #102, #331 ) ;
#202 = VECTOR ( 'NONE', #123, 1000.000000000000000 ) ;
#203 = COORDINATED_UNIVERSAL_TIME_OFFSET ( 1, 0, .AHEAD. ) ;
#204 = LOCAL_TIME ( 14, 7, 41.00000000000000000, #203 ) ;
#205 = CALENDAR_DATE ( 2015, 10, 2 ) ;
#206 = DATE_AND_TIME ( #205, #204 ) ;
#207 = APPROVAL_DATE_TIME ( #206, #29 ) ;
#208 = PERSON_AND_ORGANIZATION ( #229, #265 ) ;
#209 = PERSON_AND_ORGANIZATION ( #229, #265 ) ;
#210 = PERSON_AND_ORGANIZATION ( #229, #265 ) ;
#211 = EDGE_LOOP ( 'NONE', ( #286, #285, #284, #283 ) ) ;
#212 = EDGE_LOOP ( 'NONE', ( #306, #307, #305, #318, #308, #317 ) ) ;
#213 = EDGE_LOOP ( 'NONE', ( #249, #248, #247, #246, #186, #19 ) ) ;
#214 = EDGE_LOOP ( 'NONE', ( #253, #252, #251, #250 ) ) ;
#215 = EDGE_LOOP ( 'NONE', ( #344, #343, #342, #341 ) ) ;
#216 = EDGE_LOOP ( 'NONE', ( #316, #315, #314, #313, #345 ) ) ;
#217 = EDGE_LOOP ( 'NONE', ( #340, #339, #338, #288, #287 ) ) ;
#218 = EDGE_LOOP ( 'NONE', ( #309, #310, #319, #320 ) ) ;
#219 = EDGE_LOOP ( 'NONE', ( #263, #256 ) ) ;
#220 = EDGE_LOOP ( 'NONE', ( #282, #281 ) ) ;
#221 = VERTEX_POINT ( 'NONE', #164 ) ;
#222 = VERTEX_POINT ( 'NONE', #141 ) ;
#223 = VERTEX_POINT ( 'NONE', #76 ) ;
#224 = VERTEX_POINT ( 'NONE', #120 ) ;
#225 = VERTEX_POINT ( 'NONE', #182 ) ;
#226 = VERTEX_POINT ( 'NONE', #116 ) ;
#227 = VERTEX_POINT ( 'NONE', #181 ) ;
#228 = PRODUCT ( '084.302.015', '084.302.015', '', ( #108 ) ) ;
#229 = PERSON ( 'NON SPECIFICATO', 'NON SPECIFICATO', 'NON SPECIFICATO', ('NON SPECIFICATO'), ('NON SPECIFICATO'), ('NON SPECIFICATO') ) ;
#230 = APPROVAL_STATUS ( 'not_yet_approved' ) ;
#231 = DATE_TIME_ROLE ( 'creation_date' ) ;
#232 = APPLICATION_CONTEXT ( 'configuration controlled 3d designs of mechanical parts and assemblies' ) ;
#233 = PERSON_AND_ORGANIZATION_ROLE ( 'creator' ) ;
#234 = APPROVAL_ROLE ( '' ) ;
#235 = PERSON_AND_ORGANIZATION_ROLE ( 'creator' ) ;
#236 = SECURITY_CLASSIFICATION_LEVEL ( 'unclassified' ) ;
#237 = PERSON_AND_ORGANIZATION_ROLE ( 'design_supplier' ) ;
#238 = APPROVAL_ROLE ( '' ) ;
#239 = APPROVAL_STATUS ( 'not_yet_approved' ) ;
#240 = DATE_TIME_ROLE ( 'classification_date' ) ;
#241 = PERSON_AND_ORGANIZATION_ROLE ( 'classification_officer' ) ;
#242 = APPLICATION_PROTOCOL_DEFINITION ( 'international standard', 'config_control_design', 1994, #232 ) ;
#243 = APPROVAL_ROLE ( '' ) ;
#244 = APPROVAL_STATUS ( 'not_yet_approved' ) ;
#245 = PERSON_AND_ORGANIZATION_ROLE ( 'design_owner' ) ;
#246 = ORIENTED_EDGE ( 'NONE', *, *, #366, .F. ) ;
#247 = ORIENTED_EDGE ( 'NONE', *, *, #371, .F. ) ;
#248 = ORIENTED_EDGE ( 'NONE', *, *, #369, .F. ) ;
#249 = ORIENTED_EDGE ( 'NONE', *, *, #352, .F. ) ;
#250 = ORIENTED_EDGE ( 'NONE', *, *, #362, .F. ) ;
#251 = ORIENTED_EDGE ( 'NONE', *, *, #370, .F. ) ;
#252 = ORIENTED_EDGE ( 'NONE', *, *, #372, .F. ) ;
#253 = ORIENTED_EDGE ( 'NONE', *, *, #365, .F. ) ;
#254 = ORIENTED_EDGE ( 'NONE', *, *, #358, .F. ) ;
#255 = ORIENTED_EDGE ( 'NONE', *, *, #373, .F. ) ;
#256 = ORIENTED_EDGE ( 'NONE', *, *, #351, .T. ) ;
#257 = ORIENTED_EDGE ( 'NONE', *, *, #349, .T. ) ;
#258 = CLOSED_SHELL ( 'NONE', ( #9, #10, #11, #12, #13, #14, #15, #16, #17, #18 ) ) ;
#259 = VERTEX_POINT ( 'NONE', #103 ) ;
#260 = ORIENTED_EDGE ( 'NONE', *, *, #360, .T. ) ;
#261 = FACE_OUTER_BOUND ( 'NONE', #218, .T. ) ;
#262 = VERTEX_POINT ( 'NONE', #99 ) ;
#263 = ORIENTED_EDGE ( 'NONE', *, *, #354, .T. ) ;
#264 = SHAPE_DEFINITION_REPRESENTATION ( #185, #376 ) ;
#265 = ORGANIZATION ( 'NON SPECIFICATO', 'NON SPECIFICATO', '' ) ;
#266 = PERSON_AND_ORGANIZATION ( #229, #265 ) ;
#267 = PERSON_AND_ORGANIZATION ( #229, #265 ) ;
#268 = APPROVAL_PERSON_ORGANIZATION ( #267, #34, #243 ) ;
#269 = COORDINATED_UNIVERSAL_TIME_OFFSET ( 1, 0, .AHEAD. ) ;
#270 = LOCAL_TIME ( 14, 7, 41.00000000000000000, #269 ) ;
#271 = CALENDAR_DATE ( 2015, 10, 2 ) ;
#272 = DATE_AND_TIME ( #271, #270 ) ;
#273 = APPROVAL_DATE_TIME ( #272, #34 ) ;
#274 = PERSON_AND_ORGANIZATION ( #229, #265 ) ;
#275 = COORDINATED_UNIVERSAL_TIME_OFFSET ( 1, 0, .AHEAD. ) ;
#276 = LOCAL_TIME ( 14, 7, 41.00000000000000000, #275 ) ;
#277 = CALENDAR_DATE ( 2015, 10, 2 ) ;
#278 = DATE_AND_TIME ( #277, #276 ) ;
#279 = PERSON_AND_ORGANIZATION ( #229, #265 ) ;
#280 = APPROVAL_PERSON_ORGANIZATION ( #279, #29, #234 ) ;
#281 = ORIENTED_EDGE ( 'NONE', *, *, #355, .T. ) ;
#282 = ORIENTED_EDGE ( 'NONE', *, *, #373, .T. ) ;
#283 = ORIENTED_EDGE ( 'NONE', *, *, #372, .T. ) ;
#284 = ORIENTED_EDGE ( 'NONE', *, *, #368, .T. ) ;
#285 = ORIENTED_EDGE ( 'NONE', *, *, #371, .T. ) ;
#286 = ORIENTED_EDGE ( 'NONE', *, *, #361, .F. ) ;
#287 = ORIENTED_EDGE ( 'NONE', *, *, #370, .T. ) ;
#288 = ORIENTED_EDGE ( 'NONE', *, *, #364, .T. ) ;
#289 = FACE_OUTER_BOUND ( 'NONE', #213, .T. ) ;
#290 = FACE_OUTER_BOUND ( 'NONE', #214, .T. ) ;
#291 = SPHERICAL_SURFACE ( 'NONE', #56, 8.941550273233993100 ) ;
#292 = CIRCLE ( 'NONE', #53, 2.499999999999999600 ) ;
#293 = FACE_OUTER_BOUND ( 'NONE', #219, .T. ) ;
#294 = FACE_OUTER_BOUND ( 'NONE', #311, .T. ) ;
#295 = FACE_BOUND ( 'NONE', #312, .T. ) ;
#296 = CIRCLE ( 'NONE', #55, 3.500000000000000000 ) ;
#297 = CIRCLE ( 'NONE', #50, 7.726663011208065000 ) ;
#298 = CIRCLE ( 'NONE', #51, 8.941550273233993100 ) ;
#299 = CYLINDRICAL_SURFACE ( 'NONE', #52, 2.499999999999999600 ) ;
#300 = CIRCLE ( 'NONE', #49, 3.500000000000000000 ) ;
#301 = CIRCLE ( 'NONE', #48, 2.499999999999999600 ) ;
#302 = CIRCLE ( 'NONE', #47, 2.499999999999999600 ) ;
#303 = CIRCLE ( 'NONE', #46, 7.726663011208065000 ) ;
#304 = VECTOR ( 'NONE', #166, 1000.000000000000000 ) ;
#305 = ORIENTED_EDGE ( 'NONE', *, *, #354, .F. ) ;
#306 = ORIENTED_EDGE ( 'NONE', *, *, #357, .F. ) ;
#307 = ORIENTED_EDGE ( 'NONE', *, *, #352, .T. ) ;
#308 = ORIENTED_EDGE ( 'NONE', *, *, #353, .F. ) ;
#309 = ORIENTED_EDGE ( 'NONE', *, *, #355, .F. ) ;
#310 = ORIENTED_EDGE ( 'NONE', *, *, #358, .T. ) ;
#311 = EDGE_LOOP ( 'NONE', ( #254, #255, #260, #257 ) ) ;
#312 = EDGE_LOOP ( 'NONE', ( #1, #346 ) ) ;
#313 = ORIENTED_EDGE ( 'NONE', *, *, #361, .T. ) ;
#314 = ORIENTED_EDGE ( 'NONE', *, *, #366, .T. ) ;
#315 = ORIENTED_EDGE ( 'NONE', *, *, #353, .T. ) ;
#316 = ORIENTED_EDGE ( 'NONE', *, *, #367, .F. ) ;
#317 = ORIENTED_EDGE ( 'NONE', *, *, #363, .F. ) ;
#318 = ORIENTED_EDGE ( 'NONE', *, *, #359, .F. ) ;
#319 = ORIENTED_EDGE ( 'NONE', *, *, #356, .T. ) ;
#320 = ORIENTED_EDGE ( 'NONE', *, *, #360, .F. ) ;
#321 = VERTEX_POINT ( 'NONE', #63 ) ;
#322 = VERTEX_POINT ( 'NONE', #64 ) ;
#323 = VERTEX_POINT ( 'NONE', #62 ) ;
#324 = VERTEX_POINT ( 'NONE', #101 ) ;
#325 = VERTEX_POINT ( 'NONE', #75 ) ;
#326 = VERTEX_POINT ( 'NONE', #180 ) ;
#327 = VERTEX_POINT ( 'NONE', #74 ) ;
#328 = FACE_OUTER_BOUND ( 'NONE', #215, .T. ) ;
#329 = FACE_OUTER_BOUND ( 'NONE', #212, .T. ) ;
#330 = SPHERICAL_SURFACE ( 'NONE', #350, 8.941550273233993100 ) ;
#331 = VECTOR ( 'NONE', #97, 1000.000000000000000 ) ;
#332 = CYLINDRICAL_SURFACE ( 'NONE', #348, 2.499999999999999600 ) ;
#333 = FACE_OUTER_BOUND ( 'NONE', #217, .T. ) ;
#334 = FACE_OUTER_BOUND ( 'NONE', #216, .T. ) ;
#335 = FACE_OUTER_BOUND ( 'NONE', #211, .T. ) ;
#336 = FACE_BOUND ( 'NONE', #220, .T. ) ;
#337 = LINE ( 'NONE', #146, #304 ) ;
#338 = ORIENTED_EDGE ( 'NONE', *, *, #357, .T. ) ;
#339 = ORIENTED_EDGE ( 'NONE', *, *, #369, .T. ) ;
#340 = ORIENTED_EDGE ( 'NONE', *, *, #368, .F. ) ;
#341 = ORIENTED_EDGE ( 'NONE', *, *, #362, .T. ) ;
#342 = ORIENTED_EDGE ( 'NONE', *, *, #367, .T. ) ;
#343 = ORIENTED_EDGE ( 'NONE', *, *, #363, .T. ) ;
#344 = ORIENTED_EDGE ( 'NONE', *, *, #364, .F. ) ;
#345 = ORIENTED_EDGE ( 'NONE', *, *, #365, .T. ) ;
#346 = ORIENTED_EDGE ( 'NONE', *, *, #356, .F. ) ;
#347 = AXIS2_PLACEMENT_3D ( 'NONE', #152, #119, #118 ) ;
#348 = AXIS2_PLACEMENT_3D ( 'NONE', #100, #82, #157 ) ;
#349 = EDGE_CURVE ( 'NONE', #221, #225, #292, .T. ) ;
#350 = AXIS2_PLACEMENT_3D ( 'NONE', #145, #174, #77 ) ;
#351 = EDGE_CURVE ( 'NONE', #326, #223, #296, .T. ) ;
#352 = EDGE_CURVE ( 'NONE', #226, #326, #298, .T. ) ;
#353 = EDGE_CURVE ( 'NONE', #224, #262, #297, .T. ) ;
#354 = EDGE_CURVE ( 'NONE', #223, #326, #300, .T. ) ;
#355 = EDGE_CURVE ( 'NONE', #227, #321, #301, .T. ) ;
#356 = EDGE_CURVE ( 'NONE', #225, #221, #302, .T. ) ;
#357 = EDGE_CURVE ( 'NONE', #226, #222, #303, .T. ) ;
#358 = EDGE_CURVE ( 'NONE', #227, #225, #337, .T. ) ;
#359 = EDGE_CURVE ( 'NONE', #262, #223, #187, .T. ) ;
#360 = EDGE_CURVE ( 'NONE', #321, #221, #189, .T. ) ;
#361 = EDGE_CURVE ( 'NONE', #324, #325, #188, .T. ) ;
#362 = EDGE_CURVE ( 'NONE', #259, #322, #191, .T. ) ;
#363 = EDGE_CURVE ( 'NONE', #222, #224, #195, .T. ) ;
#364 = EDGE_CURVE ( 'NONE', #222, #322, #194, .T. ) ;
#365 = EDGE_CURVE ( 'NONE', #325, #259, #196, .T. ) ;
#366 = EDGE_CURVE ( 'NONE', #262, #324, #198, .T. ) ;
#367 = EDGE_CURVE ( 'NONE', #224, #259, #200, .T. ) ;
#368 = EDGE_CURVE ( 'NONE', #327, #323, #201, .T. ) ;
#369 = EDGE_CURVE ( 'NONE', #327, #226, #2, .T. ) ;
#370 = EDGE_CURVE ( 'NONE', #322, #323, #4, .T. ) ;
#371 = EDGE_CURVE ( 'NONE', #324, #327, #3, .T. ) ;
#372 = EDGE_CURVE ( 'NONE', #323, #325, #6, .T. ) ;
#373 = EDGE_CURVE ( 'NONE', #321, #227, #7, .T. ) ;
#374 = UNCERTAINTY_MEASURE_WITH_UNIT (LENGTH_MEASURE( 1.000000000000000100E-005 ), #69, 'distance_accuracy_value', 'NONE');
#375 = MANIFOLD_SOLID_BREP ( 'M4x0.7 Foro filettato profondo1', #258 ) ;
#376 = ADVANCED_BREP_SHAPE_REPRESENTATION ( '084.302.015', ( #375, #37 ), #39 ) ;
#377 = COORDINATED_UNIVERSAL_TIME_OFFSET ( 1, 0, .AHEAD. ) ;
#378 = LOCAL_TIME ( 14, 7, 41.00000000000000000, #377 ) ;
#379 = CALENDAR_DATE ( 2015, 10, 2 ) ;
#380 = DATE_AND_TIME ( #379, #378 ) ;
#381 = PERSON_AND_ORGANIZATION ( #229, #265 ) ;
#382 = APPROVAL_PERSON_ORGANIZATION ( #381, #22, #238 ) ;
#383 = COORDINATED_UNIVERSAL_TIME_OFFSET ( 1, 0, .AHEAD. ) ;
#384 = LOCAL_TIME ( 14, 7, 41.00000000000000000, #383 ) ;
#385 = CALENDAR_DATE ( 2015, 10, 2 ) ;
#386 = DATE_AND_TIME ( #385, #384 ) ;
#387 = APPROVAL_DATE_TIME ( #386, #22 ) ;
ENDSEC;
END-ISO-10303-21;
