ISO-10303-21;
HEADER;
FILE_DESCRIPTION (( 'STEP AP203' ),
    '1' );
FILE_NAME ('084.302.014.STEP',
    '2015-02-10T13:06:51',
    ( '' ),
    ( '' ),
    'SwSTEP 2.0',
    'SolidWorks 2012',
    '' );
FILE_SCHEMA (( 'CONFIG_CONTROL_DESIGN' ));
ENDSEC;

DATA;
#1 = EDGE_LOOP ( 'NONE', ( #303, #302, #301, #300 ) ) ;
#2 = EDGE_LOOP ( 'NONE', ( #99, #307, #306, #305, #304 ) ) ;
#3 = EDGE_LOOP ( 'NONE', ( #92, #91, #387, #386, #385, #384 ) ) ;
#4 = SHAPE_DEFINITION_REPRESENTATION ( #244, #377 ) ;
#5 = ORGANIZATION ( 'NON SPECIFICATO', 'NON SPECIFICATO', '' ) ;
#6 = PERSON_AND_ORGANIZATION ( #242, #5 ) ;
#7 = PERSON_AND_ORGANIZATION ( #242, #5 ) ;
#8 = APPROVAL_PERSON_ORGANIZATION ( #7, #44, #113 ) ;
#9 = COORDINATED_UNIVERSAL_TIME_OFFSET ( 1, 0, .AHEAD. ) ;
#10 = LOCAL_TIME ( 14, 6, 51.00000000000000000, #9 ) ;
#11 = CALENDAR_DATE ( 2015, 10, 2 ) ;
#12 = DATE_AND_TIME ( #11, #10 ) ;
#13 = VERTEX_POINT ( 'NONE', #193 ) ;
#14 = VERTEX_POINT ( 'NONE', #197 ) ;
#15 = VERTEX_POINT ( 'NONE', #229 ) ;
#16 = VERTEX_POINT ( 'NONE', #200 ) ;
#17 = VERTEX_POINT ( 'NONE', #238 ) ;
#18 = VERTEX_POINT ( 'NONE', #205 ) ;
#19 = VERTEX_POINT ( 'NONE', #133 ) ;
#20 = VERTEX_POINT ( 'NONE', #203 ) ;
#21 = VERTEX_POINT ( 'NONE', #199 ) ;
#22 = VERTEX_POINT ( 'NONE', #194 ) ;
#23 = VERTEX_POINT ( 'NONE', #190 ) ;
#24 = VERTEX_POINT ( 'NONE', #191 ) ;
#25 = VERTEX_POINT ( 'NONE', #188 ) ;
#26 = VERTEX_POINT ( 'NONE', #189 ) ;
#27 = VERTEX_POINT ( 'NONE', #179 ) ;
#28 = VERTEX_POINT ( 'NONE', #176 ) ;
#29 = CYLINDRICAL_SURFACE ( 'NONE', #62, 2.099999999999999600 ) ;
#30 = CC_DESIGN_SECURITY_CLASSIFICATION ( #35, ( #40 ) ) ;
#31 = CC_DESIGN_APPROVAL ( #32, ( #35 ) ) ;
#32 = APPROVAL ( #74, 'NON SPECIFICATO' ) ;
#33 = CC_DESIGN_DATE_AND_TIME_ASSIGNMENT ( #105, #75, ( #35 ) ) ;
#34 = CC_DESIGN_PERSON_AND_ORGANIZATION_ASSIGNMENT ( #290, #76, ( #35 ) ) ;
#35 = SECURITY_CLASSIFICATION ( '', '', #73 ) ;
#36 = CC_DESIGN_PERSON_AND_ORGANIZATION_ASSIGNMENT ( #289, #77, ( #40 ) ) ;
#37 = CC_DESIGN_PERSON_AND_ORGANIZATION_ASSIGNMENT ( #288, #78, ( #40 ) ) ;
#38 = CC_DESIGN_APPROVAL ( #39, ( #40 ) ) ;
#39 = APPROVAL ( #71, 'NON SPECIFICATO' ) ;
#40 = PRODUCT_DEFINITION_FORMATION_WITH_SPECIFIED_SOURCE ( 'TUTTO', '', #241, .NOT_KNOWN. ) ;
#41 = CC_DESIGN_DATE_AND_TIME_ASSIGNMENT ( #280, #81, ( #45 ) ) ;
#42 = CC_DESIGN_PERSON_AND_ORGANIZATION_ASSIGNMENT ( #276, #80, ( #45 ) ) ;
#43 = CC_DESIGN_APPROVAL ( #44, ( #45 ) ) ;
#44 = APPROVAL ( #115, 'NON SPECIFICATO' ) ;
#45 = PRODUCT_DEFINITION ( 'NON CONOSCIUTO', '', #40, #243 ) ;
#46 = CC_DESIGN_PERSON_AND_ORGANIZATION_ASSIGNMENT ( #6, #114, ( #241 ) ) ;
#47 = AXIS2_PLACEMENT_3D ( 'NONE', #128, #118, #117 ) ;
#48 = PRODUCT_RELATED_PRODUCT_CATEGORY ( 'detail', '', ( #241 ) ) ;
#49 =( GEOMETRIC_REPRESENTATION_CONTEXT ( 3 ) GLOBAL_UNCERTAINTY_ASSIGNED_CONTEXT ( ( #379 ) ) GLOBAL_UNIT_ASSIGNED_CONTEXT ( ( #124, #123, #122 ) ) REPRESENTATION_CONTEXT ( 'NONE', 'WORKASPACE' ) );
#50 = AXIS2_PLACEMENT_3D ( 'NONE', #127, #126, #125 ) ;
#51 = AXIS2_PLACEMENT_3D ( 'NONE', #132, #131, #130 ) ;
#52 = AXIS2_PLACEMENT_3D ( 'NONE', #136, #135, #134 ) ;
#53 = AXIS2_PLACEMENT_3D ( 'NONE', #151, #150, #149 ) ;
#54 = AXIS2_PLACEMENT_3D ( 'NONE', #162, #161, #158 ) ;
#55 = AXIS2_PLACEMENT_3D ( 'NONE', #175, #173, #172 ) ;
#56 = AXIS2_PLACEMENT_3D ( 'NONE', #181, #180, #178 ) ;
#57 = AXIS2_PLACEMENT_3D ( 'NONE', #187, #186, #185 ) ;
#58 = AXIS2_PLACEMENT_3D ( 'NONE', #196, #195, #192 ) ;
#59 = AXIS2_PLACEMENT_3D ( 'NONE', #206, #204, #202 ) ;
#60 = AXIS2_PLACEMENT_3D ( 'NONE', #210, #209, #208 ) ;
#61 = AXIS2_PLACEMENT_3D ( 'NONE', #213, #212, #211 ) ;
#62 = AXIS2_PLACEMENT_3D ( 'NONE', #221, #222, #225 ) ;
#63 = AXIS2_PLACEMENT_3D ( 'NONE', #219, #218, #217 ) ;
#64 = AXIS2_PLACEMENT_3D ( 'NONE', #232, #224, #223 ) ;
#65 = AXIS2_PLACEMENT_3D ( 'NONE', #216, #215, #214 ) ;
#66 = AXIS2_PLACEMENT_3D ( 'NONE', #228, #236, #227 ) ;
#67 = AXIS2_PLACEMENT_3D ( 'NONE', #142, #240, #239 ) ;
#68 = AXIS2_PLACEMENT_3D ( 'NONE', #144, #231, #230 ) ;
#69 = AXIS2_PLACEMENT_3D ( 'NONE', #153, #139, #140 ) ;
#70 = AXIS2_PLACEMENT_3D ( 'NONE', #146, #235, #234 ) ;
#71 = APPROVAL_STATUS ( 'not_yet_approved' ) ;
#72 = APPROVAL_ROLE ( '' ) ;
#73 = SECURITY_CLASSIFICATION_LEVEL ( 'unclassified' ) ;
#74 = APPROVAL_STATUS ( 'not_yet_approved' ) ;
#75 = DATE_TIME_ROLE ( 'classification_date' ) ;
#76 = PERSON_AND_ORGANIZATION_ROLE ( 'classification_officer' ) ;
#77 = PERSON_AND_ORGANIZATION_ROLE ( 'design_supplier' ) ;
#78 = PERSON_AND_ORGANIZATION_ROLE ( 'creator' ) ;
#79 = APPROVAL_ROLE ( '' ) ;
#80 = PERSON_AND_ORGANIZATION_ROLE ( 'creator' ) ;
#81 = DATE_TIME_ROLE ( 'creation_date' ) ;
#82 = EDGE_LOOP ( 'NONE', ( #383, #382 ) ) ;
#83 = ORIENTED_EDGE ( 'NONE', *, *, #367, .F. ) ;
#84 = ORIENTED_EDGE ( 'NONE', *, *, #368, .T. ) ;
#85 = ORIENTED_EDGE ( 'NONE', *, *, #364, .T. ) ;
#86 = ORIENTED_EDGE ( 'NONE', *, *, #369, .T. ) ;
#87 = ORIENTED_EDGE ( 'NONE', *, *, #359, .T. ) ;
#88 = ORIENTED_EDGE ( 'NONE', *, *, #370, .F. ) ;
#89 = ORIENTED_EDGE ( 'NONE', *, *, #366, .F. ) ;
#90 = ORIENTED_EDGE ( 'NONE', *, *, #359, .F. ) ;
#91 = ORIENTED_EDGE ( 'NONE', *, *, #372, .F. ) ;
#92 = ORIENTED_EDGE ( 'NONE', *, *, #355, .F. ) ;
#93 = ORIENTED_EDGE ( 'NONE', *, *, #365, .F. ) ;
#94 = ORIENTED_EDGE ( 'NONE', *, *, #373, .F. ) ;
#95 = ORIENTED_EDGE ( 'NONE', *, *, #375, .F. ) ;
#96 = ORIENTED_EDGE ( 'NONE', *, *, #368, .F. ) ;
#97 = ORIENTED_EDGE ( 'NONE', *, *, #361, .T. ) ;
#98 = ORIENTED_EDGE ( 'NONE', *, *, #376, .T. ) ;
#99 = ORIENTED_EDGE ( 'NONE', *, *, #371, .F. ) ;
#100 = ORIENTED_EDGE ( 'NONE', *, *, #365, .T. ) ;
#101 = ORIENTED_EDGE ( 'NONE', *, *, #370, .T. ) ;
#102 = ORIENTED_EDGE ( 'NONE', *, *, #366, .T. ) ;
#103 = LOCAL_TIME ( 14, 6, 51.00000000000000000, #291 ) ;
#104 = CALENDAR_DATE ( 2015, 10, 2 ) ;
#105 = DATE_AND_TIME ( #104, #103 ) ;
#106 = PERSON_AND_ORGANIZATION ( #242, #5 ) ;
#107 = APPROVAL_PERSON_ORGANIZATION ( #106, #32, #72 ) ;
#108 = COORDINATED_UNIVERSAL_TIME_OFFSET ( 1, 0, .AHEAD. ) ;
#109 = LOCAL_TIME ( 14, 6, 51.00000000000000000, #108 ) ;
#110 = CALENDAR_DATE ( 2015, 10, 2 ) ;
#111 = DATE_AND_TIME ( #110, #109 ) ;
#112 = APPROVAL_DATE_TIME ( #111, #32 ) ;
#113 = APPROVAL_ROLE ( '' ) ;
#114 = PERSON_AND_ORGANIZATION_ROLE ( 'design_owner' ) ;
#115 = APPROVAL_STATUS ( 'not_yet_approved' ) ;
#116 = MECHANICAL_CONTEXT ( 'NONE', #120, 'mechanical' ) ;
#117 = DIRECTION ( 'NONE',  ( 1.000000000000000000, 0.0000000000000000000, 0.0000000000000000000 ) ) ;
#118 = DIRECTION ( 'NONE',  ( 0.0000000000000000000, 0.0000000000000000000, 1.000000000000000000 ) ) ;
#119 = APPLICATION_CONTEXT ( 'configuration controlled 3d designs of mechanical parts and assemblies' ) ;
#120 = APPLICATION_CONTEXT ( 'configuration controlled 3d designs of mechanical parts and assemblies' ) ;
#121 = APPLICATION_PROTOCOL_DEFINITION ( 'international standard', 'config_control_design', 1994, #120 ) ;
#122 =( NAMED_UNIT ( * ) SI_UNIT ( $, .STERADIAN. ) SOLID_ANGLE_UNIT ( ) );
#123 =( NAMED_UNIT ( * ) PLANE_ANGLE_UNIT ( ) SI_UNIT ( $, .RADIAN. ) );
#124 =( LENGTH_UNIT ( ) NAMED_UNIT ( * ) SI_UNIT ( .MILLI., .METRE. ) );
#125 = DIRECTION ( 'NONE',  ( 0.0000000000000000000, 0.0000000000000000000, 1.000000000000000000 ) ) ;
#126 = DIRECTION ( 'NONE',  ( -0.0000000000000000000, 1.000000000000000000, -0.0000000000000000000 ) ) ;
#127 = CARTESIAN_POINT ( 'NONE',  ( 0.0000000000000000000, 0.0000000000000000000, 0.0000000000000000000 ) ) ;
#128 = CARTESIAN_POINT ( 'NONE',  ( 0.0000000000000000000, 0.0000000000000000000, 0.0000000000000000000 ) ) ;
#129 = APPLICATION_PROTOCOL_DEFINITION ( 'international standard', 'config_control_design', 1994, #119 ) ;
#130 = DIRECTION ( 'NONE',  ( 1.000000000000000000, 1.796090729941729400E-015, 0.0000000000000000000 ) ) ;
#131 = DIRECTION ( 'NONE',  ( -0.0000000000000000000, -0.0000000000000000000, -1.000000000000000000 ) ) ;
#132 = CARTESIAN_POINT ( 'NONE',  ( 0.0000000000000000000, -4.228081264108351600, -4.499999999999999100 ) ) ;
#133 = CARTESIAN_POINT ( 'NONE',  ( -4.500000000000000000, 0.0000000000000000000, 4.500000000000000900 ) ) ;
#134 = DIRECTION ( 'NONE',  ( 0.0000000000000000000, 0.0000000000000000000, 1.000000000000000000 ) ) ;
#135 = DIRECTION ( 'NONE',  ( 1.000000000000000000, -0.0000000000000000000, -0.0000000000000000000 ) ) ;
#136 = CARTESIAN_POINT ( 'NONE',  ( 4.500000000000000000, -4.228081264108351600, 0.0000000000000000000 ) ) ;
#137 = DIRECTION ( 'NONE',  ( -1.000000000000000000, -0.0000000000000000000, -0.0000000000000000000 ) ) ;
#138 = PLANE ( 'NONE',  #67 ) ;
#139 = DIRECTION ( 'NONE',  ( 0.0000000000000000000, -1.000000000000000000, 0.0000000000000000000 ) ) ;
#140 = DIRECTION ( 'NONE',  ( 0.0000000000000000000, -0.0000000000000000000, -1.000000000000000000 ) ) ;
#141 = CARTESIAN_POINT ( 'NONE',  ( -4.500000000000000000, 0.0000000000000000000, -4.499999999999999100 ) ) ;
#142 = CARTESIAN_POINT ( 'NONE',  ( -4.500000000000000000, 4.000000000000000000, -4.499999999999999100 ) ) ;
#143 = DIRECTION ( 'NONE',  ( -0.0000000000000000000, -1.000000000000000000, -0.0000000000000000000 ) ) ;
#144 = CARTESIAN_POINT ( 'NONE',  ( -4.500000000000000000, 4.000000000000000000, 4.500000000000000900 ) ) ;
#145 = CARTESIAN_POINT ( 'NONE',  ( 4.500000000000000000, 0.0000000000000000000, 4.500000000000000900 ) ) ;
#146 = CARTESIAN_POINT ( 'NONE',  ( 4.500000000000000000, 4.000000000000000000, 4.500000000000000900 ) ) ;
#147 = DIRECTION ( 'NONE',  ( 0.0000000000000000000, 0.0000000000000000000, -1.000000000000000000 ) ) ;
#148 = CARTESIAN_POINT ( 'NONE',  ( 4.500000000000000000, 4.000000000000000000, -4.499999999999999100 ) ) ;
#149 = DIRECTION ( 'NONE',  ( 0.0000000000000000000, 0.0000000000000000000, -1.000000000000000000 ) ) ;
#150 = DIRECTION ( 'NONE',  ( -1.000000000000000000, 0.0000000000000000000, -0.0000000000000000000 ) ) ;
#151 = CARTESIAN_POINT ( 'NONE',  ( -4.500000000000000000, -4.228081264108351600, 0.0000000000000000000 ) ) ;
#152 = PLANE ( 'NONE',  #69 ) ;
#153 = CARTESIAN_POINT ( 'NONE',  ( -4.500000000000000000, 0.0000000000000000000, -4.499999999999999100 ) ) ;
#154 = DIRECTION ( 'NONE',  ( 0.0000000000000000000, 0.0000000000000000000, -1.000000000000000000 ) ) ;
#155 = PLANE ( 'NONE',  #351 ) ;
#156 = DIRECTION ( 'NONE',  ( -0.0000000000000000000, -0.0000000000000000000, 1.000000000000000000 ) ) ;
#157 = CARTESIAN_POINT ( 'NONE',  ( -4.500000000000000000, 0.0000000000000000000, 4.500000000000000900 ) ) ;
#158 = DIRECTION ( 'NONE',  ( -1.000000000000000000, 3.592181459883459700E-015, 0.0000000000000000000 ) ) ;
#159 = DIRECTION ( 'NONE',  ( 1.000000000000000000, -0.0000000000000000000, 0.0000000000000000000 ) ) ;
#160 = CARTESIAN_POINT ( 'NONE',  ( 0.0000000000000000000, 4.000000000000000000, 0.0000000000000000000 ) ) ;
#161 = DIRECTION ( 'NONE',  ( -0.0000000000000000000, -0.0000000000000000000, 1.000000000000000000 ) ) ;
#162 = CARTESIAN_POINT ( 'NONE',  ( 0.0000000000000000000, -4.228081264108351600, 4.500000000000000900 ) ) ;
#163 = CARTESIAN_POINT ( 'NONE',  ( -4.500000000000000000, 4.000000000000000000, 4.500000000000000900 ) ) ;
#164 = DIRECTION ( 'NONE',  ( -1.000000000000000000, 0.0000000000000000000, 0.0000000000000000000 ) ) ;
#165 = DIRECTION ( 'NONE',  ( -0.0000000000000000000, -1.000000000000000000, -0.0000000000000000000 ) ) ;
#166 = CARTESIAN_POINT ( 'NONE',  ( -4.500000000000000000, 4.000000000000000000, 4.500000000000000900 ) ) ;
#167 = DIRECTION ( 'NONE',  ( 1.000000000000000000, 0.0000000000000000000, 0.0000000000000000000 ) ) ;
#168 = CARTESIAN_POINT ( 'NONE',  ( 4.500000000000000000, 4.000000000000000000, 4.500000000000000900 ) ) ;
#169 = DIRECTION ( 'NONE',  ( -0.0000000000000000000, 1.000000000000000000, -0.0000000000000000000 ) ) ;
#170 = DIRECTION ( 'NONE',  ( 0.0000000000000000000, 0.0000000000000000000, 1.000000000000000000 ) ) ;
#171 = CARTESIAN_POINT ( 'NONE',  ( -4.500000000000000000, 0.0000000000000000000, 4.500000000000000900 ) ) ;
#172 = DIRECTION ( 'NONE',  ( 0.0000000000000000000, 0.0000000000000000000, 1.000000000000000000 ) ) ;
#173 = DIRECTION ( 'NONE',  ( -0.0000000000000000000, 1.000000000000000000, -0.0000000000000000000 ) ) ;
#174 = CARTESIAN_POINT ( 'NONE',  ( 0.0000000000000000000, -4.228081264108351600, 0.0000000000000000000 ) ) ;
#175 = CARTESIAN_POINT ( 'NONE',  ( 0.0000000000000000000, 4.000000000000000000, 0.0000000000000000000 ) ) ;
#176 = CARTESIAN_POINT ( 'NONE',  ( 0.0000000000000000000, 0.0000000000000000000, 2.099999999999999600 ) ) ;
#177 = DIRECTION ( 'NONE',  ( -0.0000000000000000000, -1.000000000000000000, -0.0000000000000000000 ) ) ;
#178 = DIRECTION ( 'NONE',  ( 0.0000000000000000000, 0.0000000000000000000, 1.000000000000000000 ) ) ;
#179 = CARTESIAN_POINT ( 'NONE',  ( 0.0000000000000000000, 4.000000000000000000, 2.100000000000000100 ) ) ;
#180 = DIRECTION ( 'NONE',  ( -0.0000000000000000000, 1.000000000000000000, -0.0000000000000000000 ) ) ;
#181 = CARTESIAN_POINT ( 'NONE',  ( 0.0000000000000000000, 4.000000000000000000, 0.0000000000000000000 ) ) ;
#182 = DIRECTION ( 'NONE',  ( -0.0000000000000000000, -1.000000000000000000, -0.0000000000000000000 ) ) ;
#183 = CARTESIAN_POINT ( 'NONE',  ( -4.500000000000000000, 4.000000000000000000, -4.499999999999999100 ) ) ;
#184 = DIRECTION ( 'NONE',  ( 0.0000000000000000000, 0.0000000000000000000, 1.000000000000000000 ) ) ;
#185 = DIRECTION ( 'NONE',  ( 0.0000000000000000000, 0.0000000000000000000, 1.000000000000000000 ) ) ;
#186 = DIRECTION ( 'NONE',  ( -0.0000000000000000000, 1.000000000000000000, -0.0000000000000000000 ) ) ;
#187 = CARTESIAN_POINT ( 'NONE',  ( 0.0000000000000000000, 0.0000000000000000000, 0.0000000000000000000 ) ) ;
#188 = CARTESIAN_POINT ( 'NONE',  ( 4.500000000000000000, 2.052947416670848100, -4.499999999999999100 ) ) ;
#189 = CARTESIAN_POINT ( 'NONE',  ( -3.500000000000000000, 4.000000000000000000, 0.0000000000000000000 ) ) ;
#190 = CARTESIAN_POINT ( 'NONE',  ( 4.500000000000000900, 3.498581747099713800, 5.510910596163088600E-016 ) ) ;
#191 = CARTESIAN_POINT ( 'NONE',  ( 3.500000000000000000, 4.000000000000000000, 6.048917878116385400E-016 ) ) ;
#192 = DIRECTION ( 'NONE',  ( 0.0000000000000000000, 3.592181459883459700E-015, -1.000000000000000000 ) ) ;
#193 = CARTESIAN_POINT ( 'NONE',  ( 2.571758278209441000E-016, 0.0000000000000000000, -2.099999999999999600 ) ) ;
#194 = CARTESIAN_POINT ( 'NONE',  ( -4.500000000000000000, 2.052947416670847200, 4.500000000000000900 ) ) ;
#195 = DIRECTION ( 'NONE',  ( -1.000000000000000000, 0.0000000000000000000, -0.0000000000000000000 ) ) ;
#196 = CARTESIAN_POINT ( 'NONE',  ( -4.500000000000000000, -4.228081264108351600, 0.0000000000000000000 ) ) ;
#197 = CARTESIAN_POINT ( 'NONE',  ( -4.500000000000000900, 3.498581747099713800, 0.0000000000000000000 ) ) ;
#198 = CARTESIAN_POINT ( 'NONE',  ( 0.0000000000000000000, 4.000000000000000000, 2.099999999999999600 ) ) ;
#199 = CARTESIAN_POINT ( 'NONE',  ( 2.571758278209441500E-016, 4.000000000000000000, -2.100000000000000100 ) ) ;
#200 = CARTESIAN_POINT ( 'NONE',  ( -4.500000000000000000, 0.0000000000000000000, -4.499999999999999100 ) ) ;
#201 = DIRECTION ( 'NONE',  ( -0.0000000000000000000, 1.000000000000000000, -0.0000000000000000000 ) ) ;
#202 = DIRECTION ( 'NONE',  ( 0.0000000000000000000, 2.694136094912594600E-015, 1.000000000000000000 ) ) ;
#203 = CARTESIAN_POINT ( 'NONE',  ( 4.500000000000000000, 2.052947416670846300, 4.500000000000000900 ) ) ;
#204 = DIRECTION ( 'NONE',  ( 1.000000000000000000, -0.0000000000000000000, -0.0000000000000000000 ) ) ;
#205 = CARTESIAN_POINT ( 'NONE',  ( 4.500000000000000000, 0.0000000000000000000, 4.500000000000000900 ) ) ;
#206 = CARTESIAN_POINT ( 'NONE',  ( 4.500000000000000000, -4.228081264108351600, 0.0000000000000000000 ) ) ;
#207 = CARTESIAN_POINT ( 'NONE',  ( 2.571758278209441000E-016, 4.000000000000000000, -2.099999999999999600 ) ) ;
#208 = DIRECTION ( 'NONE',  ( -1.000000000000000000, 0.0000000000000000000, 0.0000000000000000000 ) ) ;
#209 = DIRECTION ( 'NONE',  ( -0.0000000000000000000, -0.0000000000000000000, -1.000000000000000000 ) ) ;
#210 = CARTESIAN_POINT ( 'NONE',  ( 0.0000000000000000000, -4.228081264108351600, 0.0000000000000000000 ) ) ;
#211 = DIRECTION ( 'NONE',  ( 1.000000000000000000, 0.0000000000000000000, 1.224646799147353200E-016 ) ) ;
#212 = DIRECTION ( 'NONE',  ( -1.224646799147353200E-016, 0.0000000000000000000, 1.000000000000000000 ) ) ;
#213 = CARTESIAN_POINT ( 'NONE',  ( 0.0000000000000000000, -4.228081264108351600, 0.0000000000000000000 ) ) ;
#214 = DIRECTION ( 'NONE',  ( 0.0000000000000000000, 0.0000000000000000000, 1.000000000000000000 ) ) ;
#215 = DIRECTION ( 'NONE',  ( -0.0000000000000000000, 1.000000000000000000, -0.0000000000000000000 ) ) ;
#216 = CARTESIAN_POINT ( 'NONE',  ( 0.0000000000000000000, 4.000000000000000000, 0.0000000000000000000 ) ) ;
#217 = DIRECTION ( 'NONE',  ( 0.0000000000000000000, 0.0000000000000000000, 1.000000000000000000 ) ) ;
#218 = DIRECTION ( 'NONE',  ( -0.0000000000000000000, 1.000000000000000000, -0.0000000000000000000 ) ) ;
#219 = CARTESIAN_POINT ( 'NONE',  ( 0.0000000000000000000, 4.000000000000000000, 0.0000000000000000000 ) ) ;
#220 = DIRECTION ( 'NONE',  ( -0.0000000000000000000, 1.000000000000000000, -0.0000000000000000000 ) ) ;
#221 = CARTESIAN_POINT ( 'NONE',  ( 0.0000000000000000000, 4.000000000000000000, 0.0000000000000000000 ) ) ;
#222 = DIRECTION ( 'NONE',  ( -0.0000000000000000000, 1.000000000000000000, -0.0000000000000000000 ) ) ;
#223 = DIRECTION ( 'NONE',  ( 0.0000000000000000000, -0.0000000000000000000, -1.000000000000000000 ) ) ;
#224 = DIRECTION ( 'NONE',  ( 0.0000000000000000000, -1.000000000000000000, 0.0000000000000000000 ) ) ;
#225 = DIRECTION ( 'NONE',  ( 0.0000000000000000000, 0.0000000000000000000, 1.000000000000000000 ) ) ;
#226 = PLANE ( 'NONE',  #64 ) ;
#227 = DIRECTION ( 'NONE',  ( -1.000000000000000000, 0.0000000000000000000, 0.0000000000000000000 ) ) ;
#228 = CARTESIAN_POINT ( 'NONE',  ( 0.0000000000000000000, -4.228081264108351600, 0.0000000000000000000 ) ) ;
#229 = CARTESIAN_POINT ( 'NONE',  ( 4.500000000000000000, 0.0000000000000000000, -4.499999999999999100 ) ) ;
#230 = DIRECTION ( 'NONE',  ( -1.000000000000000000, 0.0000000000000000000, -0.0000000000000000000 ) ) ;
#231 = DIRECTION ( 'NONE',  ( 0.0000000000000000000, 0.0000000000000000000, -1.000000000000000000 ) ) ;
#232 = CARTESIAN_POINT ( 'NONE',  ( -4.500000000000000000, 4.000000000000000000, -4.499999999999999100 ) ) ;
#233 = PLANE ( 'NONE',  #68 ) ;
#234 = DIRECTION ( 'NONE',  ( 0.0000000000000000000, 0.0000000000000000000, 1.000000000000000000 ) ) ;
#235 = DIRECTION ( 'NONE',  ( -1.000000000000000000, 0.0000000000000000000, 0.0000000000000000000 ) ) ;
#236 = DIRECTION ( 'NONE',  ( 0.0000000000000000000, 0.0000000000000000000, 1.000000000000000000 ) ) ;
#237 = PLANE ( 'NONE',  #70 ) ;
#238 = CARTESIAN_POINT ( 'NONE',  ( -4.500000000000000000, 2.052947416670848100, -4.499999999999999100 ) ) ;
#239 = DIRECTION ( 'NONE',  ( 1.000000000000000000, 0.0000000000000000000, -0.0000000000000000000 ) ) ;
#240 = DIRECTION ( 'NONE',  ( 0.0000000000000000000, 0.0000000000000000000, 1.000000000000000000 ) ) ;
#241 = PRODUCT ( '084.302.014', '084.302.014', '', ( #116 ) ) ;
#242 = PERSON ( 'NON SPECIFICATO', 'NON SPECIFICATO', 'NON SPECIFICATO', ('NON SPECIFICATO'), ('NON SPECIFICATO'), ('NON SPECIFICATO') ) ;
#243 = DESIGN_CONTEXT ( 'detailed design', #119, 'design' ) ;
#244 = PRODUCT_DEFINITION_SHAPE ( 'NONE', 'NONE',  #45 ) ;
#245 = EDGE_LOOP ( 'NONE', ( #295, #294, #293, #292, #90, #89 ) ) ;
#246 = EDGE_LOOP ( 'NONE', ( #88, #87, #86, #85, #84 ) ) ;
#247 = SPHERICAL_SURFACE ( 'NONE', #354, 8.941550273233993100 ) ;
#248 = EDGE_LOOP ( 'NONE', ( #83, #102, #101, #100 ) ) ;
#249 = FACE_OUTER_BOUND ( 'NONE', #245, .T. ) ;
#250 = FACE_BOUND ( 'NONE', #334, .T. ) ;
#251 = FACE_OUTER_BOUND ( 'NONE', #246, .T. ) ;
#252 = FACE_OUTER_BOUND ( 'NONE', #269, .T. ) ;
#253 = FACE_OUTER_BOUND ( 'NONE', #2, .T. ) ;
#254 = CYLINDRICAL_SURFACE ( 'NONE', #352, 2.099999999999999600 ) ;
#255 = FACE_OUTER_BOUND ( 'NONE', #1, .T. ) ;
#256 = FACE_OUTER_BOUND ( 'NONE', #267, .T. ) ;
#257 = LINE ( 'NONE', #168, #335 ) ;
#258 = FACE_OUTER_BOUND ( 'NONE', #248, .T. ) ;
#259 = FACE_OUTER_BOUND ( 'NONE', #3, .T. ) ;
#260 = SPHERICAL_SURFACE ( 'NONE', #66, 8.941550273233993100 ) ;
#261 = FACE_OUTER_BOUND ( 'NONE', #323, .T. ) ;
#262 = FACE_OUTER_BOUND ( 'NONE', #268, .T. ) ;
#263 = FACE_BOUND ( 'NONE', #82, .T. ) ;
#264 = CIRCLE ( 'NONE', #54, 7.726663011208065000 ) ;
#265 = CIRCLE ( 'NONE', #65, 2.100000000000000100 ) ;
#266 = CIRCLE ( 'NONE', #63, 3.500000000000000000 ) ;
#267 = EDGE_LOOP ( 'NONE', ( #96, #95, #94, #93 ) ) ;
#268 = EDGE_LOOP ( 'NONE', ( #274, #273, #272, #271 ) ) ;
#269 = EDGE_LOOP ( 'NONE', ( #297, #299, #296, #298 ) ) ;
#270 = CLOSED_SHELL ( 'NONE', ( #325, #324, #326, #330, #329, #328, #327, #331, #332, #333 ) ) ;
#271 = ORIENTED_EDGE ( 'NONE', *, *, #353, .T. ) ;
#272 = ORIENTED_EDGE ( 'NONE', *, *, #360, .T. ) ;
#273 = ORIENTED_EDGE ( 'NONE', *, *, #376, .F. ) ;
#274 = ORIENTED_EDGE ( 'NONE', *, *, #358, .F. ) ;
#275 = APPROVAL_DATE_TIME ( #12, #44 ) ;
#276 = PERSON_AND_ORGANIZATION ( #242, #5 ) ;
#277 = COORDINATED_UNIVERSAL_TIME_OFFSET ( 1, 0, .AHEAD. ) ;
#278 = LOCAL_TIME ( 14, 6, 51.00000000000000000, #277 ) ;
#279 = CALENDAR_DATE ( 2015, 10, 2 ) ;
#280 = DATE_AND_TIME ( #279, #278 ) ;
#281 = PERSON_AND_ORGANIZATION ( #242, #5 ) ;
#282 = APPROVAL_PERSON_ORGANIZATION ( #281, #39, #79 ) ;
#283 = COORDINATED_UNIVERSAL_TIME_OFFSET ( 1, 0, .AHEAD. ) ;
#284 = LOCAL_TIME ( 14, 6, 51.00000000000000000, #283 ) ;
#285 = CALENDAR_DATE ( 2015, 10, 2 ) ;
#286 = DATE_AND_TIME ( #285, #284 ) ;
#287 = APPROVAL_DATE_TIME ( #286, #39 ) ;
#288 = PERSON_AND_ORGANIZATION ( #242, #5 ) ;
#289 = PERSON_AND_ORGANIZATION ( #242, #5 ) ;
#290 = PERSON_AND_ORGANIZATION ( #242, #5 ) ;
#291 = COORDINATED_UNIVERSAL_TIME_OFFSET ( 1, 0, .AHEAD. ) ;
#292 = ORIENTED_EDGE ( 'NONE', *, *, #356, .F. ) ;
#293 = ORIENTED_EDGE ( 'NONE', *, *, #362, .F. ) ;
#294 = ORIENTED_EDGE ( 'NONE', *, *, #355, .T. ) ;
#295 = ORIENTED_EDGE ( 'NONE', *, *, #357, .F. ) ;
#296 = ORIENTED_EDGE ( 'NONE', *, *, #363, .T. ) ;
#297 = ORIENTED_EDGE ( 'NONE', *, *, #361, .F. ) ;
#298 = ORIENTED_EDGE ( 'NONE', *, *, #360, .F. ) ;
#299 = ORIENTED_EDGE ( 'NONE', *, *, #358, .T. ) ;
#300 = ORIENTED_EDGE ( 'NONE', *, *, #375, .T. ) ;
#301 = ORIENTED_EDGE ( 'NONE', *, *, #371, .T. ) ;
#302 = ORIENTED_EDGE ( 'NONE', *, *, #374, .T. ) ;
#303 = ORIENTED_EDGE ( 'NONE', *, *, #364, .F. ) ;
#304 = ORIENTED_EDGE ( 'NONE', *, *, #373, .T. ) ;
#305 = ORIENTED_EDGE ( 'NONE', *, *, #367, .T. ) ;
#306 = ORIENTED_EDGE ( 'NONE', *, *, #357, .T. ) ;
#307 = ORIENTED_EDGE ( 'NONE', *, *, #372, .T. ) ;
#308 = CIRCLE ( 'NONE', #61, 8.941550273233993100 ) ;
#309 = LINE ( 'NONE', #207, #314 ) ;
#310 = CIRCLE ( 'NONE', #60, 8.941550273233993100 ) ;
#311 = CIRCLE ( 'NONE', #58, 7.726663011208065000 ) ;
#312 = CIRCLE ( 'NONE', #59, 7.726663011208065000 ) ;
#313 = LINE ( 'NONE', #198, #317 ) ;
#314 = VECTOR ( 'NONE', #220, 1000.000000000000000 ) ;
#315 = CIRCLE ( 'NONE', #56, 3.500000000000000000 ) ;
#316 = CIRCLE ( 'NONE', #57, 2.099999999999999600 ) ;
#317 = VECTOR ( 'NONE', #201, 1000.000000000000000 ) ;
#318 = CIRCLE ( 'NONE', #55, 2.100000000000000100 ) ;
#319 = LINE ( 'NONE', #183, #321 ) ;
#320 = LINE ( 'NONE', #171, #322 ) ;
#321 = VECTOR ( 'NONE', #182, 1000.000000000000000 ) ;
#322 = VECTOR ( 'NONE', #167, 1000.000000000000000 ) ;
#323 = EDGE_LOOP ( 'NONE', ( #381, #380 ) ) ;
#324 = ADVANCED_FACE ( 'NONE', ( #249 ), #247, .T. ) ;
#325 = ADVANCED_FACE ( 'NONE', ( #252 ), #254, .F. ) ;
#326 = ADVANCED_FACE ( 'NONE', ( #251 ), #155, .F. ) ;
#327 = ADVANCED_FACE ( 'NONE', ( #250, #256 ), #152, .T. ) ;
#328 = ADVANCED_FACE ( 'NONE', ( #255 ), #138, .F. ) ;
#329 = ADVANCED_FACE ( 'NONE', ( #253 ), #237, .F. ) ;
#330 = ADVANCED_FACE ( 'NONE', ( #258 ), #233, .F. ) ;
#331 = ADVANCED_FACE ( 'NONE', ( #259 ), #260, .T. ) ;
#332 = ADVANCED_FACE ( 'NONE', ( #263, #261 ), #226, .F. ) ;
#333 = ADVANCED_FACE ( 'NONE', ( #262 ), #29, .F. ) ;
#334 = EDGE_LOOP ( 'NONE', ( #98, #97 ) ) ;
#335 = VECTOR ( 'NONE', #177, 1000.000000000000000 ) ;
#336 = CIRCLE ( 'NONE', #53, 7.726663011208065000 ) ;
#337 = LINE ( 'NONE', #157, #338 ) ;
#338 = VECTOR ( 'NONE', #156, 1000.000000000000000 ) ;
#339 = LINE ( 'NONE', #166, #341 ) ;
#340 = LINE ( 'NONE', #148, #342 ) ;
#341 = VECTOR ( 'NONE', #165, 1000.000000000000000 ) ;
#342 = VECTOR ( 'NONE', #143, 1000.000000000000000 ) ;
#343 = LINE ( 'NONE', #145, #346 ) ;
#344 = CIRCLE ( 'NONE', #52, 7.726663011208065000 ) ;
#345 = CIRCLE ( 'NONE', #51, 7.726663011208065900 ) ;
#346 = VECTOR ( 'NONE', #154, 1000.000000000000000 ) ;
#347 = LINE ( 'NONE', #141, #349 ) ;
#348 = CIRCLE ( 'NONE', #50, 2.099999999999999600 ) ;
#349 = VECTOR ( 'NONE', #137, 1000.000000000000000 ) ;
#350 = EDGE_CURVE ( 'NONE', #24, #26, #266, .T. ) ;
#351 = AXIS2_PLACEMENT_3D ( 'NONE', #163, #159, #147 ) ;
#352 = AXIS2_PLACEMENT_3D ( 'NONE', #160, #169, #184 ) ;
#353 = EDGE_CURVE ( 'NONE', #27, #21, #265, .T. ) ;
#354 = AXIS2_PLACEMENT_3D ( 'NONE', #174, #170, #164 ) ;
#355 = EDGE_CURVE ( 'NONE', #23, #24, #308, .T. ) ;
#356 = EDGE_CURVE ( 'NONE', #14, #26, #310, .T. ) ;
#357 = EDGE_CURVE ( 'NONE', #23, #20, #312, .T. ) ;
#358 = EDGE_CURVE ( 'NONE', #13, #21, #309, .T. ) ;
#359 = EDGE_CURVE ( 'NONE', #22, #14, #311, .T. ) ;
#360 = EDGE_CURVE ( 'NONE', #28, #27, #313, .T. ) ;
#361 = EDGE_CURVE ( 'NONE', #13, #28, #316, .T. ) ;
#362 = EDGE_CURVE ( 'NONE', #26, #24, #315, .T. ) ;
#363 = EDGE_CURVE ( 'NONE', #21, #27, #318, .T. ) ;
#364 = EDGE_CURVE ( 'NONE', #17, #16, #319, .T. ) ;
#365 = EDGE_CURVE ( 'NONE', #19, #18, #320, .T. ) ;
#366 = EDGE_CURVE ( 'NONE', #20, #22, #264, .T. ) ;
#367 = EDGE_CURVE ( 'NONE', #20, #18, #257, .T. ) ;
#368 = EDGE_CURVE ( 'NONE', #16, #19, #337, .T. ) ;
#369 = EDGE_CURVE ( 'NONE', #14, #17, #336, .T. ) ;
#370 = EDGE_CURVE ( 'NONE', #22, #19, #339, .T. ) ;
#371 = EDGE_CURVE ( 'NONE', #25, #15, #340, .T. ) ;
#372 = EDGE_CURVE ( 'NONE', #25, #23, #344, .T. ) ;
#373 = EDGE_CURVE ( 'NONE', #18, #15, #343, .T. ) ;
#374 = EDGE_CURVE ( 'NONE', #17, #25, #345, .T. ) ;
#375 = EDGE_CURVE ( 'NONE', #15, #16, #347, .T. ) ;
#376 = EDGE_CURVE ( 'NONE', #28, #13, #348, .T. ) ;
#377 = ADVANCED_BREP_SHAPE_REPRESENTATION ( '084.302.014', ( #378, #47 ), #49 ) ;
#378 = MANIFOLD_SOLID_BREP ( 'M4x0.7 Foro filettato profondo1', #270 ) ;
#379 = UNCERTAINTY_MEASURE_WITH_UNIT (LENGTH_MEASURE( 1.000000000000000100E-005 ), #124, 'distance_accuracy_value', 'NONE');
#380 = ORIENTED_EDGE ( 'NONE', *, *, #350, .T. ) ;
#381 = ORIENTED_EDGE ( 'NONE', *, *, #362, .T. ) ;
#382 = ORIENTED_EDGE ( 'NONE', *, *, #363, .F. ) ;
#383 = ORIENTED_EDGE ( 'NONE', *, *, #353, .F. ) ;
#384 = ORIENTED_EDGE ( 'NONE', *, *, #350, .F. ) ;
#385 = ORIENTED_EDGE ( 'NONE', *, *, #356, .T. ) ;
#386 = ORIENTED_EDGE ( 'NONE', *, *, #369, .F. ) ;
#387 = ORIENTED_EDGE ( 'NONE', *, *, #374, .F. ) ;
ENDSEC;
END-ISO-10303-21;
