ISO-10303-21;
HEADER;
FILE_DESCRIPTION (( 'STEP AP203' ),
    '1' );
FILE_NAME ('084.302.013.STEP',
    '2015-02-10T13:05:53',
    ( '' ),
    ( '' ),
    'SwSTEP 2.0',
    'SolidWorks 2012',
    '' );
FILE_SCHEMA (( 'CONFIG_CONTROL_DESIGN' ));
ENDSEC;

DATA;
#1 = ORIENTED_EDGE ( 'NONE', *, *, #376, .T. ) ;
#2 = ORIENTED_EDGE ( 'NONE', *, *, #383, .F. ) ;
#3 = ORIENTED_EDGE ( 'NONE', *, *, #369, .F. ) ;
#4 = ORIENTED_EDGE ( 'NONE', *, *, #382, .T. ) ;
#5 = ORIENTED_EDGE ( 'NONE', *, *, #380, .T. ) ;
#6 = ORIENTED_EDGE ( 'NONE', *, *, #363, .T. ) ;
#7 = ORIENTED_EDGE ( 'NONE', *, *, #373, .F. ) ;
#8 = ORIENTED_EDGE ( 'NONE', *, *, #361, .T. ) ;
#9 = EDGE_LOOP ( 'NONE', ( #294, #329, #327, #288, #289, #326 ) ) ;
#10 = EDGE_LOOP ( 'NONE', ( #348, #292, #291, #345, #355 ) ) ;
#11 = EDGE_LOOP ( 'NONE', ( #354, #353, #351, #350, #8, #2 ) ) ;
#12 = EDGE_LOOP ( 'NONE', ( #4, #6 ) ) ;
#13 = CIRCLE ( 'NONE', #42, 7.726663011208065900 ) ;
#14 = CIRCLE ( 'NONE', #41, 1.649999999999999000 ) ;
#15 = LINE ( 'NONE', #100, #16 ) ;
#16 = VECTOR ( 'NONE', #99, 1000.000000000000000 ) ;
#17 = CIRCLE ( 'NONE', #40, 3.500000000000000000 ) ;
#18 = CIRCLE ( 'NONE', #39, 1.649999999999999500 ) ;
#19 = PRODUCT_RELATED_PRODUCT_CATEGORY ( 'detail', '', ( #232 ) ) ;
#20 = CC_DESIGN_SECURITY_CLASSIFICATION ( #25, ( #30 ) ) ;
#21 = CC_DESIGN_APPROVAL ( #22, ( #25 ) ) ;
#22 = APPROVAL ( #62, 'NON SPECIFICATO' ) ;
#23 = CC_DESIGN_DATE_AND_TIME_ASSIGNMENT ( #256, #65, ( #25 ) ) ;
#24 = CC_DESIGN_PERSON_AND_ORGANIZATION_ASSIGNMENT ( #252, #66, ( #25 ) ) ;
#25 = SECURITY_CLASSIFICATION ( '', '', #67 ) ;
#26 = CC_DESIGN_PERSON_AND_ORGANIZATION_ASSIGNMENT ( #251, #68, ( #30 ) ) ;
#27 = CC_DESIGN_PERSON_AND_ORGANIZATION_ASSIGNMENT ( #250, #69, ( #30 ) ) ;
#28 = CC_DESIGN_APPROVAL ( #29, ( #30 ) ) ;
#29 = APPROVAL ( #76, 'NON SPECIFICATO' ) ;
#30 = PRODUCT_DEFINITION_FORMATION_WITH_SPECIFIED_SOURCE ( 'TUTTO', '', #232, .NOT_KNOWN. ) ;
#31 = CC_DESIGN_DATE_AND_TIME_ASSIGNMENT ( #213, #78, ( #35 ) ) ;
#32 = CC_DESIGN_PERSON_AND_ORGANIZATION_ASSIGNMENT ( #209, #79, ( #35 ) ) ;
#33 = CC_DESIGN_APPROVAL ( #34, ( #35 ) ) ;
#34 = APPROVAL ( #82, 'NON SPECIFICATO' ) ;
#35 = PRODUCT_DEFINITION ( 'NON CONOSCIUTO', '', #30, #233 ) ;
#36 = CC_DESIGN_PERSON_AND_ORGANIZATION_ASSIGNMENT ( #201, #89, ( #232 ) ) ;
#37 = AXIS2_PLACEMENT_3D ( 'NONE', #84, #106, #95 ) ;
#38 =( GEOMETRIC_REPRESENTATION_CONTEXT ( 3 ) GLOBAL_UNCERTAINTY_ASSIGNED_CONTEXT ( ( #386 ) ) GLOBAL_UNIT_ASSIGNED_CONTEXT ( ( #71, #70, #64 ) ) REPRESENTATION_CONTEXT ( 'NONE', 'WORKASPACE' ) );
#39 = AXIS2_PLACEMENT_3D ( 'NONE', #74, #73, #72 ) ;
#40 = AXIS2_PLACEMENT_3D ( 'NONE', #83, #80, #77 ) ;
#41 = AXIS2_PLACEMENT_3D ( 'NONE', #90, #87, #85 ) ;
#42 = AXIS2_PLACEMENT_3D ( 'NONE', #93, #92, #91 ) ;
#43 = AXIS2_PLACEMENT_3D ( 'NONE', #98, #97, #96 ) ;
#44 = AXIS2_PLACEMENT_3D ( 'NONE', #109, #108, #107 ) ;
#45 = AXIS2_PLACEMENT_3D ( 'NONE', #115, #114, #113 ) ;
#46 = AXIS2_PLACEMENT_3D ( 'NONE', #120, #119, #118 ) ;
#47 = AXIS2_PLACEMENT_3D ( 'NONE', #128, #127, #126 ) ;
#48 = AXIS2_PLACEMENT_3D ( 'NONE', #132, #131, #130 ) ;
#49 = AXIS2_PLACEMENT_3D ( 'NONE', #135, #134, #133 ) ;
#50 = AXIS2_PLACEMENT_3D ( 'NONE', #138, #137, #136 ) ;
#51 = AXIS2_PLACEMENT_3D ( 'NONE', #164, #166, #173 ) ;
#52 = AXIS2_PLACEMENT_3D ( 'NONE', #145, #144, #143 ) ;
#53 = AXIS2_PLACEMENT_3D ( 'NONE', #177, #168, #167 ) ;
#54 = AXIS2_PLACEMENT_3D ( 'NONE', #141, #140, #139 ) ;
#55 = AXIS2_PLACEMENT_3D ( 'NONE', #182, #172, #171 ) ;
#56 = AXIS2_PLACEMENT_3D ( 'NONE', #181, #176, #175 ) ;
#57 = AXIS2_PLACEMENT_3D ( 'NONE', #191, #180, #179 ) ;
#58 = AXIS2_PLACEMENT_3D ( 'NONE', #189, #184, #183 ) ;
#59 = AXIS2_PLACEMENT_3D ( 'NONE', #193, #188, #187 ) ;
#60 = APPLICATION_CONTEXT ( 'configuration controlled 3d designs of mechanical parts and assemblies' ) ;
#61 = APPROVAL_ROLE ( '' ) ;
#62 = APPROVAL_STATUS ( 'not_yet_approved' ) ;
#63 = APPLICATION_PROTOCOL_DEFINITION ( 'international standard', 'config_control_design', 1994, #60 ) ;
#64 =( NAMED_UNIT ( * ) SI_UNIT ( $, .STERADIAN. ) SOLID_ANGLE_UNIT ( ) );
#65 = DATE_TIME_ROLE ( 'classification_date' ) ;
#66 = PERSON_AND_ORGANIZATION_ROLE ( 'classification_officer' ) ;
#67 = SECURITY_CLASSIFICATION_LEVEL ( 'unclassified' ) ;
#68 = PERSON_AND_ORGANIZATION_ROLE ( 'design_supplier' ) ;
#69 = PERSON_AND_ORGANIZATION_ROLE ( 'creator' ) ;
#70 =( NAMED_UNIT ( * ) PLANE_ANGLE_UNIT ( ) SI_UNIT ( $, .RADIAN. ) );
#71 =( LENGTH_UNIT ( ) NAMED_UNIT ( * ) SI_UNIT ( .MILLI., .METRE. ) );
#72 = DIRECTION ( 'NONE',  ( 0.0000000000000000000, 0.0000000000000000000, 1.000000000000000000 ) ) ;
#73 = DIRECTION ( 'NONE',  ( -0.0000000000000000000, 1.000000000000000000, -0.0000000000000000000 ) ) ;
#74 = CARTESIAN_POINT ( 'NONE',  ( 0.0000000000000000000, 4.000000000000000000, 0.0000000000000000000 ) ) ;
#75 = APPROVAL_ROLE ( '' ) ;
#76 = APPROVAL_STATUS ( 'not_yet_approved' ) ;
#77 = DIRECTION ( 'NONE',  ( 0.0000000000000000000, 0.0000000000000000000, 1.000000000000000000 ) ) ;
#78 = DATE_TIME_ROLE ( 'creation_date' ) ;
#79 = PERSON_AND_ORGANIZATION_ROLE ( 'creator' ) ;
#80 = DIRECTION ( 'NONE',  ( -0.0000000000000000000, 1.000000000000000000, -0.0000000000000000000 ) ) ;
#81 = APPROVAL_ROLE ( '' ) ;
#82 = APPROVAL_STATUS ( 'not_yet_approved' ) ;
#83 = CARTESIAN_POINT ( 'NONE',  ( 0.0000000000000000000, 4.000000000000000000, 0.0000000000000000000 ) ) ;
#84 = CARTESIAN_POINT ( 'NONE',  ( 0.0000000000000000000, 0.0000000000000000000, 0.0000000000000000000 ) ) ;
#85 = DIRECTION ( 'NONE',  ( 0.0000000000000000000, 0.0000000000000000000, 1.000000000000000000 ) ) ;
#86 = APPLICATION_PROTOCOL_DEFINITION ( 'international standard', 'config_control_design', 1994, #88 ) ;
#87 = DIRECTION ( 'NONE',  ( -0.0000000000000000000, 1.000000000000000000, -0.0000000000000000000 ) ) ;
#88 = APPLICATION_CONTEXT ( 'configuration controlled 3d designs of mechanical parts and assemblies' ) ;
#89 = PERSON_AND_ORGANIZATION_ROLE ( 'design_owner' ) ;
#90 = CARTESIAN_POINT ( 'NONE',  ( 0.0000000000000000000, 0.0000000000000000000, 0.0000000000000000000 ) ) ;
#91 = DIRECTION ( 'NONE',  ( 1.000000000000000000, 1.796090729941729400E-015, 0.0000000000000000000 ) ) ;
#92 = DIRECTION ( 'NONE',  ( -0.0000000000000000000, -0.0000000000000000000, -1.000000000000000000 ) ) ;
#93 = CARTESIAN_POINT ( 'NONE',  ( 0.0000000000000000000, -4.228081264108351600, -4.499999999999999100 ) ) ;
#94 = MECHANICAL_CONTEXT ( 'NONE', #60, 'mechanical' ) ;
#95 = DIRECTION ( 'NONE',  ( 1.000000000000000000, 0.0000000000000000000, 0.0000000000000000000 ) ) ;
#96 = DIRECTION ( 'NONE',  ( 0.0000000000000000000, 0.0000000000000000000, 1.000000000000000000 ) ) ;
#97 = DIRECTION ( 'NONE',  ( 1.000000000000000000, -0.0000000000000000000, -0.0000000000000000000 ) ) ;
#98 = CARTESIAN_POINT ( 'NONE',  ( 4.500000000000000000, -4.228081264108351600, 0.0000000000000000000 ) ) ;
#99 = DIRECTION ( 'NONE',  ( -1.000000000000000000, -0.0000000000000000000, -0.0000000000000000000 ) ) ;
#100 = CARTESIAN_POINT ( 'NONE',  ( -4.500000000000000000, 0.0000000000000000000, -4.499999999999999100 ) ) ;
#101 = DIRECTION ( 'NONE',  ( -0.0000000000000000000, -1.000000000000000000, -0.0000000000000000000 ) ) ;
#102 = CARTESIAN_POINT ( 'NONE',  ( 4.500000000000000000, 0.0000000000000000000, 4.500000000000000900 ) ) ;
#103 = CARTESIAN_POINT ( 'NONE',  ( 4.500000000000000000, 4.000000000000000000, -4.499999999999999100 ) ) ;
#104 = DIRECTION ( 'NONE',  ( 1.000000000000000000, 0.0000000000000000000, 0.0000000000000000000 ) ) ;
#105 = CARTESIAN_POINT ( 'NONE',  ( -4.500000000000000000, 0.0000000000000000000, 4.500000000000000900 ) ) ;
#106 = DIRECTION ( 'NONE',  ( 0.0000000000000000000, 0.0000000000000000000, 1.000000000000000000 ) ) ;
#107 = DIRECTION ( 'NONE',  ( 0.0000000000000000000, 3.592181459883459700E-015, -1.000000000000000000 ) ) ;
#108 = DIRECTION ( 'NONE',  ( -1.000000000000000000, 0.0000000000000000000, -0.0000000000000000000 ) ) ;
#109 = CARTESIAN_POINT ( 'NONE',  ( -4.500000000000000000, -4.228081264108351600, 0.0000000000000000000 ) ) ;
#110 = DIRECTION ( 'NONE',  ( 0.0000000000000000000, 0.0000000000000000000, -1.000000000000000000 ) ) ;
#111 = DIRECTION ( 'NONE',  ( -0.0000000000000000000, -1.000000000000000000, -0.0000000000000000000 ) ) ;
#112 = CARTESIAN_POINT ( 'NONE',  ( -4.500000000000000000, 4.000000000000000000, -4.499999999999999100 ) ) ;
#113 = DIRECTION ( 'NONE',  ( 0.0000000000000000000, 0.0000000000000000000, -1.000000000000000000 ) ) ;
#114 = DIRECTION ( 'NONE',  ( -1.000000000000000000, 0.0000000000000000000, -0.0000000000000000000 ) ) ;
#115 = CARTESIAN_POINT ( 'NONE',  ( -4.500000000000000000, -4.228081264108351600, 0.0000000000000000000 ) ) ;
#116 = DIRECTION ( 'NONE',  ( -0.0000000000000000000, -1.000000000000000000, -0.0000000000000000000 ) ) ;
#117 = CARTESIAN_POINT ( 'NONE',  ( 4.500000000000000000, 4.000000000000000000, 4.500000000000000900 ) ) ;
#118 = DIRECTION ( 'NONE',  ( -1.000000000000000000, 3.592181459883459700E-015, 0.0000000000000000000 ) ) ;
#119 = DIRECTION ( 'NONE',  ( -0.0000000000000000000, -0.0000000000000000000, 1.000000000000000000 ) ) ;
#120 = CARTESIAN_POINT ( 'NONE',  ( 0.0000000000000000000, -4.228081264108351600, 4.500000000000000900 ) ) ;
#121 = DIRECTION ( 'NONE',  ( -0.0000000000000000000, -1.000000000000000000, -0.0000000000000000000 ) ) ;
#122 = CARTESIAN_POINT ( 'NONE',  ( -4.500000000000000000, 4.000000000000000000, 4.500000000000000900 ) ) ;
#123 = DIRECTION ( 'NONE',  ( -0.0000000000000000000, -0.0000000000000000000, 1.000000000000000000 ) ) ;
#124 = DIRECTION ( 'NONE',  ( -1.000000000000000000, 0.0000000000000000000, 0.0000000000000000000 ) ) ;
#125 = CARTESIAN_POINT ( 'NONE',  ( -4.500000000000000000, 0.0000000000000000000, 4.500000000000000900 ) ) ;
#126 = DIRECTION ( 'NONE',  ( 0.0000000000000000000, 2.694136094912594600E-015, 1.000000000000000000 ) ) ;
#127 = DIRECTION ( 'NONE',  ( 1.000000000000000000, -0.0000000000000000000, -0.0000000000000000000 ) ) ;
#128 = CARTESIAN_POINT ( 'NONE',  ( 4.500000000000000000, -4.228081264108351600, 0.0000000000000000000 ) ) ;
#129 = CARTESIAN_POINT ( 'NONE',  ( 2.020667218593132000E-016, 4.000000000000000000, -1.649999999999999200 ) ) ;
#130 = DIRECTION ( 'NONE',  ( 0.0000000000000000000, 0.0000000000000000000, 1.000000000000000000 ) ) ;
#131 = DIRECTION ( 'NONE',  ( -0.0000000000000000000, 1.000000000000000000, -0.0000000000000000000 ) ) ;
#132 = CARTESIAN_POINT ( 'NONE',  ( 0.0000000000000000000, 4.000000000000000000, 0.0000000000000000000 ) ) ;
#133 = DIRECTION ( 'NONE',  ( 1.000000000000000000, 0.0000000000000000000, 1.224646799147353200E-016 ) ) ;
#134 = DIRECTION ( 'NONE',  ( -1.224646799147353200E-016, 0.0000000000000000000, 1.000000000000000000 ) ) ;
#135 = CARTESIAN_POINT ( 'NONE',  ( 0.0000000000000000000, -4.228081264108351600, 0.0000000000000000000 ) ) ;
#136 = DIRECTION ( 'NONE',  ( 0.0000000000000000000, 0.0000000000000000000, 1.000000000000000000 ) ) ;
#137 = DIRECTION ( 'NONE',  ( -0.0000000000000000000, 1.000000000000000000, -0.0000000000000000000 ) ) ;
#138 = CARTESIAN_POINT ( 'NONE',  ( 0.0000000000000000000, 4.000000000000000000, 0.0000000000000000000 ) ) ;
#139 = DIRECTION ( 'NONE',  ( 0.0000000000000000000, 0.0000000000000000000, 1.000000000000000000 ) ) ;
#140 = DIRECTION ( 'NONE',  ( -0.0000000000000000000, 1.000000000000000000, -0.0000000000000000000 ) ) ;
#141 = CARTESIAN_POINT ( 'NONE',  ( 0.0000000000000000000, 0.0000000000000000000, 0.0000000000000000000 ) ) ;
#142 = DIRECTION ( 'NONE',  ( -0.0000000000000000000, 1.000000000000000000, -0.0000000000000000000 ) ) ;
#143 = DIRECTION ( 'NONE',  ( -1.000000000000000000, 0.0000000000000000000, 0.0000000000000000000 ) ) ;
#144 = DIRECTION ( 'NONE',  ( -0.0000000000000000000, -0.0000000000000000000, -1.000000000000000000 ) ) ;
#145 = CARTESIAN_POINT ( 'NONE',  ( 0.0000000000000000000, -4.228081264108351600, 0.0000000000000000000 ) ) ;
#146 = CARTESIAN_POINT ( 'NONE',  ( 0.0000000000000000000, 4.000000000000000000, 1.649999999999999200 ) ) ;
#147 = DIRECTION ( 'NONE',  ( -0.0000000000000000000, 1.000000000000000000, -0.0000000000000000000 ) ) ;
#148 = CARTESIAN_POINT ( 'NONE',  ( 4.500000000000000000, 2.052947416670846300, 4.500000000000000900 ) ) ;
#149 = CARTESIAN_POINT ( 'NONE',  ( 0.0000000000000000000, 4.000000000000000000, 1.649999999999999500 ) ) ;
#150 = CARTESIAN_POINT ( 'NONE',  ( 2.020667218593132500E-016, 4.000000000000000000, -1.649999999999999700 ) ) ;
#151 = CARTESIAN_POINT ( 'NONE',  ( 4.500000000000000900, 3.498581747099713800, 5.510910596163088600E-016 ) ) ;
#152 = CARTESIAN_POINT ( 'NONE',  ( 4.500000000000000000, 0.0000000000000000000, -4.499999999999999100 ) ) ;
#153 = CARTESIAN_POINT ( 'NONE',  ( -4.500000000000000000, 2.052947416670848100, -4.499999999999999100 ) ) ;
#154 = CARTESIAN_POINT ( 'NONE',  ( 4.500000000000000000, 2.052947416670848100, -4.499999999999999100 ) ) ;
#155 = CARTESIAN_POINT ( 'NONE',  ( -4.500000000000000000, 0.0000000000000000000, -4.499999999999999100 ) ) ;
#156 = CARTESIAN_POINT ( 'NONE',  ( 4.500000000000000000, 0.0000000000000000000, 4.500000000000000900 ) ) ;
#157 = CARTESIAN_POINT ( 'NONE',  ( -4.500000000000000900, 3.498581747099713800, 0.0000000000000000000 ) ) ;
#158 = CARTESIAN_POINT ( 'NONE',  ( 2.020667218593132000E-016, 0.0000000000000000000, -1.649999999999999000 ) ) ;
#159 = CARTESIAN_POINT ( 'NONE',  ( -4.500000000000000000, 0.0000000000000000000, 4.500000000000000900 ) ) ;
#160 = CARTESIAN_POINT ( 'NONE',  ( 3.500000000000000000, 4.000000000000000000, 6.048917878116385400E-016 ) ) ;
#161 = DIRECTION ( 'NONE',  ( -0.0000000000000000000, 1.000000000000000000, -0.0000000000000000000 ) ) ;
#162 = CARTESIAN_POINT ( 'NONE',  ( -3.500000000000000000, 4.000000000000000000, 0.0000000000000000000 ) ) ;
#163 = CARTESIAN_POINT ( 'NONE',  ( 0.0000000000000000000, 0.0000000000000000000, 1.649999999999999000 ) ) ;
#164 = CARTESIAN_POINT ( 'NONE',  ( 0.0000000000000000000, 4.000000000000000000, 0.0000000000000000000 ) ) ;
#165 = CARTESIAN_POINT ( 'NONE',  ( 0.0000000000000000000, 4.000000000000000000, 0.0000000000000000000 ) ) ;
#166 = DIRECTION ( 'NONE',  ( -0.0000000000000000000, 1.000000000000000000, -0.0000000000000000000 ) ) ;
#167 = DIRECTION ( 'NONE',  ( 0.0000000000000000000, 0.0000000000000000000, -1.000000000000000000 ) ) ;
#168 = DIRECTION ( 'NONE',  ( 1.000000000000000000, -0.0000000000000000000, 0.0000000000000000000 ) ) ;
#169 = CARTESIAN_POINT ( 'NONE',  ( -4.500000000000000000, 2.052947416670847200, 4.500000000000000900 ) ) ;
#170 = PLANE ( 'NONE',  #53 ) ;
#171 = DIRECTION ( 'NONE',  ( 1.000000000000000000, 0.0000000000000000000, -0.0000000000000000000 ) ) ;
#172 = DIRECTION ( 'NONE',  ( 0.0000000000000000000, 0.0000000000000000000, 1.000000000000000000 ) ) ;
#173 = DIRECTION ( 'NONE',  ( 0.0000000000000000000, 0.0000000000000000000, 1.000000000000000000 ) ) ;
#174 = PLANE ( 'NONE',  #55 ) ;
#175 = DIRECTION ( 'NONE',  ( -1.000000000000000000, 0.0000000000000000000, -0.0000000000000000000 ) ) ;
#176 = DIRECTION ( 'NONE',  ( 0.0000000000000000000, 0.0000000000000000000, -1.000000000000000000 ) ) ;
#177 = CARTESIAN_POINT ( 'NONE',  ( -4.500000000000000000, 4.000000000000000000, 4.500000000000000900 ) ) ;
#178 = PLANE ( 'NONE',  #56 ) ;
#179 = DIRECTION ( 'NONE',  ( 0.0000000000000000000, -0.0000000000000000000, -1.000000000000000000 ) ) ;
#180 = DIRECTION ( 'NONE',  ( 0.0000000000000000000, -1.000000000000000000, 0.0000000000000000000 ) ) ;
#181 = CARTESIAN_POINT ( 'NONE',  ( -4.500000000000000000, 4.000000000000000000, 4.500000000000000900 ) ) ;
#182 = CARTESIAN_POINT ( 'NONE',  ( -4.500000000000000000, 4.000000000000000000, -4.499999999999999100 ) ) ;
#183 = DIRECTION ( 'NONE',  ( 0.0000000000000000000, 0.0000000000000000000, 1.000000000000000000 ) ) ;
#184 = DIRECTION ( 'NONE',  ( -1.000000000000000000, 0.0000000000000000000, 0.0000000000000000000 ) ) ;
#185 = PLANE ( 'NONE',  #57 ) ;
#186 = PLANE ( 'NONE',  #58 ) ;
#187 = DIRECTION ( 'NONE',  ( 0.0000000000000000000, -0.0000000000000000000, -1.000000000000000000 ) ) ;
#188 = DIRECTION ( 'NONE',  ( 0.0000000000000000000, -1.000000000000000000, 0.0000000000000000000 ) ) ;
#189 = CARTESIAN_POINT ( 'NONE',  ( 4.500000000000000000, 4.000000000000000000, 4.500000000000000900 ) ) ;
#190 = PLANE ( 'NONE',  #59 ) ;
#191 = CARTESIAN_POINT ( 'NONE',  ( -4.500000000000000000, 0.0000000000000000000, -4.499999999999999100 ) ) ;
#192 = DIRECTION ( 'NONE',  ( -1.000000000000000000, 0.0000000000000000000, 0.0000000000000000000 ) ) ;
#193 = CARTESIAN_POINT ( 'NONE',  ( -4.500000000000000000, 4.000000000000000000, -4.499999999999999100 ) ) ;
#194 = DIRECTION ( 'NONE',  ( 0.0000000000000000000, 0.0000000000000000000, 1.000000000000000000 ) ) ;
#195 = CARTESIAN_POINT ( 'NONE',  ( 0.0000000000000000000, -4.228081264108351600, 0.0000000000000000000 ) ) ;
#196 = DIRECTION ( 'NONE',  ( 0.0000000000000000000, 0.0000000000000000000, 1.000000000000000000 ) ) ;
#197 = DIRECTION ( 'NONE',  ( 0.0000000000000000000, 0.0000000000000000000, 1.000000000000000000 ) ) ;
#198 = CARTESIAN_POINT ( 'NONE',  ( 0.0000000000000000000, -4.228081264108351600, 0.0000000000000000000 ) ) ;
#199 = SHAPE_DEFINITION_REPRESENTATION ( #234, #385 ) ;
#200 = ORGANIZATION ( 'NON SPECIFICATO', 'NON SPECIFICATO', '' ) ;
#201 = PERSON_AND_ORGANIZATION ( #231, #200 ) ;
#202 = PERSON_AND_ORGANIZATION ( #231, #200 ) ;
#203 = APPROVAL_PERSON_ORGANIZATION ( #202, #34, #81 ) ;
#204 = COORDINATED_UNIVERSAL_TIME_OFFSET ( 1, 0, .AHEAD. ) ;
#205 = LOCAL_TIME ( 14, 5, 53.00000000000000000, #204 ) ;
#206 = CALENDAR_DATE ( 2015, 10, 2 ) ;
#207 = DATE_AND_TIME ( #206, #205 ) ;
#208 = APPROVAL_DATE_TIME ( #207, #34 ) ;
#209 = PERSON_AND_ORGANIZATION ( #231, #200 ) ;
#210 = COORDINATED_UNIVERSAL_TIME_OFFSET ( 1, 0, .AHEAD. ) ;
#211 = LOCAL_TIME ( 14, 5, 53.00000000000000000, #210 ) ;
#212 = CALENDAR_DATE ( 2015, 10, 2 ) ;
#213 = DATE_AND_TIME ( #212, #211 ) ;
#214 = PERSON_AND_ORGANIZATION ( #231, #200 ) ;
#215 = APPROVAL_PERSON_ORGANIZATION ( #214, #29, #75 ) ;
#216 = VECTOR ( 'NONE', #116, 1000.000000000000000 ) ;
#217 = LINE ( 'NONE', #103, #220 ) ;
#218 = LINE ( 'NONE', #105, #219 ) ;
#219 = VECTOR ( 'NONE', #104, 1000.000000000000000 ) ;
#220 = VECTOR ( 'NONE', #101, 1000.000000000000000 ) ;
#221 = LINE ( 'NONE', #102, #286 ) ;
#222 = CIRCLE ( 'NONE', #43, 7.726663011208065000 ) ;
#223 = CIRCLE ( 'NONE', #46, 7.726663011208065000 ) ;
#224 = LINE ( 'NONE', #122, #227 ) ;
#225 = CIRCLE ( 'NONE', #45, 7.726663011208065000 ) ;
#226 = LINE ( 'NONE', #112, #229 ) ;
#227 = VECTOR ( 'NONE', #121, 1000.000000000000000 ) ;
#228 = CIRCLE ( 'NONE', #44, 7.726663011208065000 ) ;
#229 = VECTOR ( 'NONE', #111, 1000.000000000000000 ) ;
#230 = LINE ( 'NONE', #117, #216 ) ;
#231 = PERSON ( 'NON SPECIFICATO', 'NON SPECIFICATO', 'NON SPECIFICATO', ('NON SPECIFICATO'), ('NON SPECIFICATO'), ('NON SPECIFICATO') ) ;
#232 = PRODUCT ( '084.302.013', '084.302.013', '', ( #94 ) ) ;
#233 = DESIGN_CONTEXT ( 'detailed design', #88, 'design' ) ;
#234 = PRODUCT_DEFINITION_SHAPE ( 'NONE', 'NONE',  #35 ) ;
#235 = ADVANCED_FACE ( 'NONE', ( #298 ), #279, .F. ) ;
#236 = ADVANCED_FACE ( 'NONE', ( #276 ), #277, .T. ) ;
#237 = ADVANCED_FACE ( 'NONE', ( #319 ), #297, .T. ) ;
#238 = ADVANCED_FACE ( 'NONE', ( #322, #318 ), #190, .F. ) ;
#239 = ADVANCED_FACE ( 'NONE', ( #321 ), #186, .F. ) ;
#240 = ADVANCED_FACE ( 'NONE', ( #320, #278 ), #185, .T. ) ;
#241 = ADVANCED_FACE ( 'NONE', ( #325 ), #178, .F. ) ;
#242 = ADVANCED_FACE ( 'NONE', ( #323 ), #174, .F. ) ;
#243 = ADVANCED_FACE ( 'NONE', ( #324 ), #170, .F. ) ;
#244 = ADVANCED_FACE ( 'NONE', ( #280 ), #285, .F. ) ;
#245 = COORDINATED_UNIVERSAL_TIME_OFFSET ( 1, 0, .AHEAD. ) ;
#246 = LOCAL_TIME ( 14, 5, 53.00000000000000000, #245 ) ;
#247 = CALENDAR_DATE ( 2015, 10, 2 ) ;
#248 = DATE_AND_TIME ( #247, #246 ) ;
#249 = APPROVAL_DATE_TIME ( #248, #29 ) ;
#250 = PERSON_AND_ORGANIZATION ( #231, #200 ) ;
#251 = PERSON_AND_ORGANIZATION ( #231, #200 ) ;
#252 = PERSON_AND_ORGANIZATION ( #231, #200 ) ;
#253 = COORDINATED_UNIVERSAL_TIME_OFFSET ( 1, 0, .AHEAD. ) ;
#254 = LOCAL_TIME ( 14, 5, 53.00000000000000000, #253 ) ;
#255 = CALENDAR_DATE ( 2015, 10, 2 ) ;
#256 = DATE_AND_TIME ( #255, #254 ) ;
#257 = PERSON_AND_ORGANIZATION ( #231, #200 ) ;
#258 = APPROVAL_PERSON_ORGANIZATION ( #257, #22, #61 ) ;
#259 = COORDINATED_UNIVERSAL_TIME_OFFSET ( 1, 0, .AHEAD. ) ;
#260 = LOCAL_TIME ( 14, 5, 53.00000000000000000, #259 ) ;
#261 = CALENDAR_DATE ( 2015, 10, 2 ) ;
#262 = ORIENTED_EDGE ( 'NONE', *, *, #383, .T. ) ;
#263 = ORIENTED_EDGE ( 'NONE', *, *, #366, .T. ) ;
#264 = ORIENTED_EDGE ( 'NONE', *, *, #364, .F. ) ;
#265 = ORIENTED_EDGE ( 'NONE', *, *, #377, .T. ) ;
#266 = ORIENTED_EDGE ( 'NONE', *, *, #377, .F. ) ;
#267 = ORIENTED_EDGE ( 'NONE', *, *, #379, .T. ) ;
#268 = ORIENTED_EDGE ( 'NONE', *, *, #379, .F. ) ;
#269 = ORIENTED_EDGE ( 'NONE', *, *, #384, .F. ) ;
#270 = DATE_AND_TIME ( #261, #260 ) ;
#271 = APPROVAL_DATE_TIME ( #270, #22 ) ;
#272 = VERTEX_POINT ( 'NONE', #158 ) ;
#273 = VERTEX_POINT ( 'NONE', #163 ) ;
#274 = VERTEX_POINT ( 'NONE', #169 ) ;
#275 = VERTEX_POINT ( 'NONE', #162 ) ;
#276 = FACE_OUTER_BOUND ( 'NONE', #9, .T. ) ;
#277 = SPHERICAL_SURFACE ( 'NONE', #360, 8.941550273233993100 ) ;
#278 = FACE_OUTER_BOUND ( 'NONE', #302, .T. ) ;
#279 = CYLINDRICAL_SURFACE ( 'NONE', #359, 1.649999999999999200 ) ;
#280 = FACE_OUTER_BOUND ( 'NONE', #301, .T. ) ;
#281 = LINE ( 'NONE', #146, #282 ) ;
#282 = VECTOR ( 'NONE', #147, 1000.000000000000000 ) ;
#283 = CIRCLE ( 'NONE', #54, 1.649999999999999000 ) ;
#284 = LINE ( 'NONE', #125, #316 ) ;
#285 = CYLINDRICAL_SURFACE ( 'NONE', #51, 1.649999999999999200 ) ;
#286 = VECTOR ( 'NONE', #110, 1000.000000000000000 ) ;
#287 = CIRCLE ( 'NONE', #52, 8.941550273233993100 ) ;
#288 = ORIENTED_EDGE ( 'NONE', *, *, #361, .F. ) ;
#289 = ORIENTED_EDGE ( 'NONE', *, *, #374, .F. ) ;
#290 = ORIENTED_EDGE ( 'NONE', *, *, #363, .F. ) ;
#291 = ORIENTED_EDGE ( 'NONE', *, *, #371, .T. ) ;
#292 = ORIENTED_EDGE ( 'NONE', *, *, #374, .T. ) ;
#293 = ORIENTED_EDGE ( 'NONE', *, *, #368, .T. ) ;
#294 = ORIENTED_EDGE ( 'NONE', *, *, #367, .F. ) ;
#295 = ORIENTED_EDGE ( 'NONE', *, *, #362, .F. ) ;
#296 = EDGE_LOOP ( 'NONE', ( #263, #262 ) ) ;
#297 = SPHERICAL_SURFACE ( 'NONE', #358, 8.941550273233993100 ) ;
#298 = FACE_OUTER_BOUND ( 'NONE', #305, .T. ) ;
#299 = EDGE_LOOP ( 'NONE', ( #7, #5, #265, #349 ) ) ;
#300 = EDGE_LOOP ( 'NONE', ( #356, #357, #346, #1 ) ) ;
#301 = EDGE_LOOP ( 'NONE', ( #310, #309, #308, #307 ) ) ;
#302 = EDGE_LOOP ( 'NONE', ( #3, #344, #268, #347 ) ) ;
#303 = EDGE_LOOP ( 'NONE', ( #266, #352, #342, #343, #267 ) ) ;
#304 = EDGE_LOOP ( 'NONE', ( #269, #264 ) ) ;
#305 = EDGE_LOOP ( 'NONE', ( #290, #293, #328, #295 ) ) ;
#306 = CLOSED_SHELL ( 'NONE', ( #235, #236, #243, #241, #239, #242, #240, #237, #238, #244 ) ) ;
#307 = ORIENTED_EDGE ( 'NONE', *, *, #384, .T. ) ;
#308 = ORIENTED_EDGE ( 'NONE', *, *, #362, .T. ) ;
#309 = ORIENTED_EDGE ( 'NONE', *, *, #382, .F. ) ;
#310 = ORIENTED_EDGE ( 'NONE', *, *, #368, .F. ) ;
#311 = CIRCLE ( 'NONE', #50, 1.649999999999999500 ) ;
#312 = CIRCLE ( 'NONE', #47, 7.726663011208065000 ) ;
#313 = CIRCLE ( 'NONE', #49, 8.941550273233993100 ) ;
#314 = LINE ( 'NONE', #129, #317 ) ;
#315 = CIRCLE ( 'NONE', #48, 3.500000000000000000 ) ;
#316 = VECTOR ( 'NONE', #123, 1000.000000000000000 ) ;
#317 = VECTOR ( 'NONE', #142, 1000.000000000000000 ) ;
#318 = FACE_OUTER_BOUND ( 'NONE', #296, .T. ) ;
#319 = FACE_OUTER_BOUND ( 'NONE', #11, .T. ) ;
#320 = FACE_BOUND ( 'NONE', #12, .T. ) ;
#321 = FACE_OUTER_BOUND ( 'NONE', #303, .T. ) ;
#322 = FACE_BOUND ( 'NONE', #304, .T. ) ;
#323 = FACE_OUTER_BOUND ( 'NONE', #299, .T. ) ;
#324 = FACE_OUTER_BOUND ( 'NONE', #10, .T. ) ;
#325 = FACE_OUTER_BOUND ( 'NONE', #300, .T. ) ;
#326 = ORIENTED_EDGE ( 'NONE', *, *, #370, .F. ) ;
#327 = ORIENTED_EDGE ( 'NONE', *, *, #366, .F. ) ;
#328 = ORIENTED_EDGE ( 'NONE', *, *, #364, .T. ) ;
#329 = ORIENTED_EDGE ( 'NONE', *, *, #365, .T. ) ;
#330 = VERTEX_POINT ( 'NONE', #160 ) ;
#331 = VERTEX_POINT ( 'NONE', #159 ) ;
#332 = VERTEX_POINT ( 'NONE', #154 ) ;
#333 = VERTEX_POINT ( 'NONE', #156 ) ;
#334 = VERTEX_POINT ( 'NONE', #153 ) ;
#335 = VERTEX_POINT ( 'NONE', #155 ) ;
#336 = VERTEX_POINT ( 'NONE', #152 ) ;
#337 = VERTEX_POINT ( 'NONE', #157 ) ;
#338 = VERTEX_POINT ( 'NONE', #151 ) ;
#339 = VERTEX_POINT ( 'NONE', #150 ) ;
#340 = VERTEX_POINT ( 'NONE', #149 ) ;
#341 = VERTEX_POINT ( 'NONE', #148 ) ;
#342 = ORIENTED_EDGE ( 'NONE', *, *, #367, .T. ) ;
#343 = ORIENTED_EDGE ( 'NONE', *, *, #375, .T. ) ;
#344 = ORIENTED_EDGE ( 'NONE', *, *, #381, .F. ) ;
#345 = ORIENTED_EDGE ( 'NONE', *, *, #373, .T. ) ;
#346 = ORIENTED_EDGE ( 'NONE', *, *, #372, .T. ) ;
#347 = ORIENTED_EDGE ( 'NONE', *, *, #376, .F. ) ;
#348 = ORIENTED_EDGE ( 'NONE', *, *, #372, .F. ) ;
#349 = ORIENTED_EDGE ( 'NONE', *, *, #381, .T. ) ;
#350 = ORIENTED_EDGE ( 'NONE', *, *, #371, .F. ) ;
#351 = ORIENTED_EDGE ( 'NONE', *, *, #380, .F. ) ;
#352 = ORIENTED_EDGE ( 'NONE', *, *, #378, .T. ) ;
#353 = ORIENTED_EDGE ( 'NONE', *, *, #378, .F. ) ;
#354 = ORIENTED_EDGE ( 'NONE', *, *, #365, .F. ) ;
#355 = ORIENTED_EDGE ( 'NONE', *, *, #369, .T. ) ;
#356 = ORIENTED_EDGE ( 'NONE', *, *, #375, .F. ) ;
#357 = ORIENTED_EDGE ( 'NONE', *, *, #370, .T. ) ;
#358 = AXIS2_PLACEMENT_3D ( 'NONE', #195, #196, #192 ) ;
#359 = AXIS2_PLACEMENT_3D ( 'NONE', #165, #161, #194 ) ;
#360 = AXIS2_PLACEMENT_3D ( 'NONE', #198, #197, #124 ) ;
#361 = EDGE_CURVE ( 'NONE', #337, #275, #287, .T. ) ;
#362 = EDGE_CURVE ( 'NONE', #273, #340, #281, .T. ) ;
#363 = EDGE_CURVE ( 'NONE', #272, #273, #283, .T. ) ;
#364 = EDGE_CURVE ( 'NONE', #339, #340, #311, .T. ) ;
#365 = EDGE_CURVE ( 'NONE', #338, #330, #313, .T. ) ;
#366 = EDGE_CURVE ( 'NONE', #275, #330, #315, .T. ) ;
#367 = EDGE_CURVE ( 'NONE', #338, #341, #312, .T. ) ;
#368 = EDGE_CURVE ( 'NONE', #272, #339, #314, .T. ) ;
#369 = EDGE_CURVE ( 'NONE', #335, #331, #284, .T. ) ;
#370 = EDGE_CURVE ( 'NONE', #341, #274, #223, .T. ) ;
#371 = EDGE_CURVE ( 'NONE', #337, #334, #225, .T. ) ;
#372 = EDGE_CURVE ( 'NONE', #274, #331, #224, .T. ) ;
#373 = EDGE_CURVE ( 'NONE', #334, #335, #226, .T. ) ;
#374 = EDGE_CURVE ( 'NONE', #274, #337, #228, .T. ) ;
#375 = EDGE_CURVE ( 'NONE', #341, #333, #230, .T. ) ;
#376 = EDGE_CURVE ( 'NONE', #331, #333, #218, .T. ) ;
#377 = EDGE_CURVE ( 'NONE', #332, #336, #217, .T. ) ;
#378 = EDGE_CURVE ( 'NONE', #332, #338, #222, .T. ) ;
#379 = EDGE_CURVE ( 'NONE', #333, #336, #221, .T. ) ;
#380 = EDGE_CURVE ( 'NONE', #334, #332, #13, .T. ) ;
#381 = EDGE_CURVE ( 'NONE', #336, #335, #15, .T. ) ;
#382 = EDGE_CURVE ( 'NONE', #273, #272, #14, .T. ) ;
#383 = EDGE_CURVE ( 'NONE', #330, #275, #17, .T. ) ;
#384 = EDGE_CURVE ( 'NONE', #340, #339, #18, .T. ) ;
#385 = ADVANCED_BREP_SHAPE_REPRESENTATION ( '084.302.013', ( #387, #37 ), #38 ) ;
#386 = UNCERTAINTY_MEASURE_WITH_UNIT (LENGTH_MEASURE( 1.000000000000000100E-005 ), #71, 'distance_accuracy_value', 'NONE');
#387 = MANIFOLD_SOLID_BREP ( 'M4x0.7 Foro filettato profondo1', #306 ) ;
ENDSEC;
END-ISO-10303-21;
