ISO-10303-21;
HEADER;
FILE_DESCRIPTION (( 'STEP AP203' ),
    '1' );
FILE_NAME ('084.302.012.STEP',
    '2013-01-25T08:13:15',
    ( 'Alusic' ),
    ( 'Alusic' ),
    'SwSTEP 2.0',
    'SolidWorks 2011',
    '' );
FILE_SCHEMA (( 'CONFIG_CONTROL_DESIGN' ));
ENDSEC;

DATA;
#1 = DIRECTION ( 'NONE',  ( -0.7071067811865513500, 0.7071067811865435800, 0.0000000000000000000 ) ) ;
#2 = DIRECTION ( 'NONE',  ( 0.7071067811865436900, 0.7071067811865514600, -0.0000000000000000000 ) ) ;
#3 = DIRECTION ( 'NONE',  ( -0.0000000000000000000, 1.000000000000000000, -0.0000000000000000000 ) ) ;
#4 = CARTESIAN_POINT ( 'NONE',  ( -6.500000000000000000, 0.0000000000000000000, -20.00000000000000000 ) ) ;
#5 = DIRECTION ( 'NONE',  ( 0.0000000000000000000, -1.000000000000000000, 0.0000000000000000000 ) ) ;
#6 = CARTESIAN_POINT ( 'NONE',  ( 0.0000000000000000000, 0.0000000000000000000, 3.399999999999993200 ) ) ;
#7 = DIRECTION ( 'NONE',  ( 0.7071067811865513500, 0.7071067811865436900, -0.0000000000000000000 ) ) ;
#8 = CARTESIAN_POINT ( 'NONE',  ( -6.500000000000000000, -4.000000000000022200, 20.00000000000000000 ) ) ;
#9 = CARTESIAN_POINT ( 'NONE',  ( 6.500000000000001800, -4.000000000000020400, -20.00000000000000000 ) ) ;
#10 = DIRECTION ( 'NONE',  ( 0.0000000000000000000, 0.0000000000000000000, 1.000000000000000000 ) ) ;
#11 = DIRECTION ( 'NONE',  ( -0.0000000000000000000, 1.000000000000000000, -0.0000000000000000000 ) ) ;
#12 = CARTESIAN_POINT ( 'NONE',  ( 0.0000000000000000000, 1.138883909054807900E-015, 0.0000000000000000000 ) ) ;
#13 = DIRECTION ( 'NONE',  ( -0.0000000000000000000, 0.0000000000000000000, -1.000000000000000000 ) ) ;
#14 = DIRECTION ( 'NONE',  ( 1.000000000000000000, 0.0000000000000000000, -0.0000000000000000000 ) ) ;
#15 = CARTESIAN_POINT ( 'NONE',  ( -6.500000000000000000, 0.0000000000000000000, 20.00000000000000000 ) ) ;
#16 = PLANE ( 'NONE',  #78 ) ;
#17 = PLANE ( 'NONE',  #45 ) ;
#18 = PLANE ( 'NONE',  #72 ) ;
#19 = DIRECTION ( 'NONE',  ( -1.000000000000000000, -4.336808689941994100E-016, 0.0000000000000000000 ) ) ;
#20 = CARTESIAN_POINT ( 'NONE',  ( 6.500000000000000000, 1.591988259969090200E-015, 20.00000000000000000 ) ) ;
#21 = DIRECTION ( 'NONE',  ( 4.336808689941994100E-016, -1.000000000000000000, 0.0000000000000000000 ) ) ;
#22 = DIRECTION ( 'NONE',  ( 0.7071067811865514600, -0.7071067811865435800, 0.0000000000000000000 ) ) ;
#23 = CARTESIAN_POINT ( 'NONE',  ( -6.500000000000000000, -4.000000000000022200, 20.00000000000000000 ) ) ;
#24 = CARTESIAN_POINT ( 'NONE',  ( -6.500000000000000000, -4.000000000000022200, 20.00000000000000000 ) ) ;
#25 = DIRECTION ( 'NONE',  ( 0.7071067811865513500, 0.7071067811865436900, -0.0000000000000000000 ) ) ;
#26 = CARTESIAN_POINT ( 'NONE',  ( 6.500000000000001800, -4.000000000000020400, 20.00000000000000000 ) ) ;
#27 = DIRECTION ( 'NONE',  ( 1.000000000000000000, 9.637352644315595200E-017, 0.0000000000000000000 ) ) ;
#28 = CARTESIAN_POINT ( 'NONE',  ( -4.499999999999999100, -6.000000000000000000, 20.00000000000000000 ) ) ;
#29 = DIRECTION ( 'NONE',  ( 1.000000000000000000, 1.224606353822377300E-016, 0.0000000000000000000 ) ) ;
#30 = DIRECTION ( 'NONE',  ( 1.224606353822377300E-016, -1.000000000000000000, 0.0000000000000000000 ) ) ;
#31 = CARTESIAN_POINT ( 'NONE',  ( -6.500000000000000000, 0.0000000000000000000, 20.00000000000000000 ) ) ;
#32 = PLANE ( 'NONE',  #82 ) ;
#33 = DIRECTION ( 'NONE',  ( 0.0000000000000000000, 0.0000000000000000000, 1.000000000000000000 ) ) ;
#34 = DIRECTION ( 'NONE',  ( -0.0000000000000000000, 1.000000000000000000, -0.0000000000000000000 ) ) ;
#35 = CARTESIAN_POINT ( 'NONE',  ( 0.0000000000000000000, 0.0000000000000000000, 0.0000000000000000000 ) ) ;
#36 = DIRECTION ( 'NONE',  ( -0.0000000000000000000, -0.0000000000000000000, -1.000000000000000000 ) ) ;
#37 = APPROVAL ( #220, 'NON SPECIFICATO' ) ;
#38 = CIRCLE ( 'NONE', #89, 3.399999999999987900 ) ;
#39 = CC_DESIGN_APPROVAL ( #93, ( #88 ) ) ;
#40 = AXIS2_PLACEMENT_3D ( 'NONE', #135, #136, #137 ) ;
#41 = VECTOR ( 'NONE', #27, 1000.000000000000000 ) ;
#42 = AXIS2_PLACEMENT_3D ( 'NONE', #207, #208, #209 ) ;
#43 = AXIS2_PLACEMENT_3D ( 'NONE', #148, #149, #150 ) ;
#44 = CC_DESIGN_DATE_AND_TIME_ASSIGNMENT ( #353, #219, ( #52 ) ) ;
#45 = AXIS2_PLACEMENT_3D ( 'NONE', #8, #2, #1 ) ;
#46 = CIRCLE ( 'NONE', #65, 3.399999999999998600 ) ;
#47 = VECTOR ( 'NONE', #5, 1000.000000000000000 ) ;
#48 = VECTOR ( 'NONE', #180, 1000.000000000000000 ) ;
#49 = CC_DESIGN_PERSON_AND_ORGANIZATION_ASSIGNMENT ( #370, #225, ( #88 ) ) ;
#50 = VECTOR ( 'NONE', #185, 1000.000000000000000 ) ;
#51 = APPROVAL ( #216, 'NON SPECIFICATO' ) ;
#52 = PRODUCT_DEFINITION ( 'NON CONOSCIUTO', '', #85, #377 ) ;
#53 = VECTOR ( 'NONE', #25, 1000.000000000000000 ) ;
#54 = AXIS2_PLACEMENT_3D ( 'NONE', #152, #153, #154 ) ;
#55 = CC_DESIGN_APPROVAL ( #37, ( #85 ) ) ;
#56 = CC_DESIGN_SECURITY_CLASSIFICATION ( #88, ( #85 ) ) ;
#57 = VECTOR ( 'NONE', #176, 1000.000000000000000 ) ;
#58 = CC_DESIGN_PERSON_AND_ORGANIZATION_ASSIGNMENT ( #360, #223, ( #85 ) ) ;
#59 = VECTOR ( 'NONE', #167, 1000.000000000000000 ) ;
#60 = VECTOR ( 'NONE', #143, 1000.000000000000000 ) ;
#61 = CIRCLE ( 'NONE', #84, 3.399999999999987900 ) ;
#62 = CC_DESIGN_PERSON_AND_ORGANIZATION_ASSIGNMENT ( #356, #218, ( #52 ) ) ;
#63 = CC_DESIGN_APPROVAL ( #51, ( #52 ) ) ;
#64 = AXIS2_PLACEMENT_3D ( 'NONE', #145, #146, #147 ) ;
#65 = AXIS2_PLACEMENT_3D ( 'NONE', #172, #173, #174 ) ;
#66 = VECTOR ( 'NONE', #169, 1000.000000000000000 ) ;
#67 = CC_DESIGN_PERSON_AND_ORGANIZATION_ASSIGNMENT ( #347, #222, ( #85 ) ) ;
#68 = VECTOR ( 'NONE', #3, 1000.000000000000000 ) ;
#69 = VECTOR ( 'NONE', #171, 1000.000000000000000 ) ;
#70 = VECTOR ( 'NONE', #36, 1000.000000000000000 ) ;
#71 = VECTOR ( 'NONE', #165, 1000.000000000000000 ) ;
#72 = AXIS2_PLACEMENT_3D ( 'NONE', #20, #19, #21 ) ;
#73 = CC_DESIGN_PERSON_AND_ORGANIZATION_ASSIGNMENT ( #344, #213, ( #372 ) ) ;
#74 = VECTOR ( 'NONE', #161, 1000.000000000000000 ) ;
#75 = VECTOR ( 'NONE', #7, 1000.000000000000000 ) ;
#76 = CIRCLE ( 'NONE', #43, 3.399999999999998600 ) ;
#77 = VECTOR ( 'NONE', #22, 1000.000000000000000 ) ;
#78 = AXIS2_PLACEMENT_3D ( 'NONE', #15, #14, #13 ) ;
#79 = AXIS2_PLACEMENT_3D ( 'NONE', #35, #34, #33 ) ;
#80 = VECTOR ( 'NONE', #159, 1000.000000000000000 ) ;
#81 = VECTOR ( 'NONE', #178, 1000.000000000000000 ) ;
#82 = AXIS2_PLACEMENT_3D ( 'NONE', #31, #30, #29 ) ;
#83 = AXIS2_PLACEMENT_3D ( 'NONE', #139, #140, #141 ) ;
#84 = AXIS2_PLACEMENT_3D ( 'NONE', #181, #182, #183 ) ;
#85 = PRODUCT_DEFINITION_FORMATION_WITH_SPECIFIED_SOURCE ( 'TUTTO', '', #372, .NOT_KNOWN. ) ;
#86 = PRODUCT_RELATED_PRODUCT_CATEGORY ( 'detail', '', ( #372 ) ) ;
#87 = AXIS2_PLACEMENT_3D ( 'NONE', #155, #156, #157 ) ;
#88 = SECURITY_CLASSIFICATION ( '', '', #224 ) ;
#89 = AXIS2_PLACEMENT_3D ( 'NONE', #12, #11, #10 ) ;
#90 = VECTOR ( 'NONE', #163, 1000.000000000000000 ) ;
#91 = CC_DESIGN_DATE_AND_TIME_ASSIGNMENT ( #367, #226, ( #88 ) ) ;
#92 = VECTOR ( 'NONE', #187, 1000.000000000000000 ) ;
#93 = APPROVAL ( #227, 'NON SPECIFICATO' ) ;
#94 = LOCAL_TIME ( 9, 13, 15.00000000000000000, #355 ) ;
#95 = LOCAL_TIME ( 9, 13, 15.00000000000000000, #342 ) ;
#96 = ADVANCED_FACE ( 'NONE', ( #307 ), #308, .F. ) ;
#97 = ADVANCED_FACE ( 'NONE', ( #309 ), #18, .F. ) ;
#98 = ADVANCED_FACE ( 'NONE', ( #310, #311 ), #32, .F. ) ;
#99 = EDGE_CURVE ( 'NONE', #288, #285, #312, .T. ) ;
#100 = EDGE_CURVE ( 'NONE', #292, #288, #315, .T. ) ;
#101 = EDGE_CURVE ( 'NONE', #292, #293, #313, .T. ) ;
#102 = EDGE_CURVE ( 'NONE', #285, #284, #275, .T. ) ;
#103 = EDGE_CURVE ( 'NONE', #289, #283, #281, .T. ) ;
#104 = ADVANCED_FACE ( 'NONE', ( #323 ), #16, .F. ) ;
#105 = EDGE_CURVE ( 'NONE', #270, #269, #38, .T. ) ;
#106 = EDGE_CURVE ( 'NONE', #267, #269, #322, .T. ) ;
#107 = EDGE_CURVE ( 'NONE', #276, #293, #321, .T. ) ;
#108 = ADVANCED_FACE ( 'NONE', ( #320 ), #17, .F. ) ;
#109 = ADVANCED_FACE ( 'NONE', ( #314 ), #134, .F. ) ;
#110 = ADVANCED_FACE ( 'NONE', ( #318 ), #138, .T. ) ;
#111 = EDGE_CURVE ( 'NONE', #285, #289, #319, .T. ) ;
#112 = ADVANCED_FACE ( 'NONE', ( #333, #332 ), #144, .F. ) ;
#113 = EDGE_CURVE ( 'NONE', #267, #258, #76, .T. ) ;
#114 = ADVANCED_FACE ( 'NONE', ( #331 ), #151, .F. ) ;
#115 = ADVANCED_FACE ( 'NONE', ( #317 ), #330, .F. ) ;
#116 =( GEOMETRIC_REPRESENTATION_CONTEXT ( 3 ) GLOBAL_UNCERTAINTY_ASSIGNED_CONTEXT ( ( #371 ) ) GLOBAL_UNIT_ASSIGNED_CONTEXT ( ( #204, #205, #206 ) ) REPRESENTATION_CONTEXT ( 'NONE', 'WORKASPACE' ) );
#117 = EDGE_CURVE ( 'NONE', #290, #289, #329, .T. ) ;
#118 = EDGE_CURVE ( 'NONE', #284, #283, #328, .T. ) ;
#119 = EDGE_CURVE ( 'NONE', #291, #276, #327, .T. ) ;
#120 = EDGE_CURVE ( 'NONE', #293, #290, #326, .T. ) ;
#121 = EDGE_CURVE ( 'NONE', #291, #292, #325, .T. ) ;
#122 = EDGE_CURVE ( 'NONE', #288, #290, #324, .T. ) ;
#123 = EDGE_CURVE ( 'NONE', #258, #270, #339, .T. ) ;
#124 = EDGE_CURVE ( 'NONE', #258, #267, #46, .T. ) ;
#125 = EDGE_CURVE ( 'NONE', #286, #287, #338, .T. ) ;
#126 = EDGE_CURVE ( 'NONE', #283, #287, #337, .T. ) ;
#127 = EDGE_CURVE ( 'NONE', #284, #286, #336, .T. ) ;
#128 = EDGE_CURVE ( 'NONE', #269, #270, #61, .T. ) ;
#129 = EDGE_CURVE ( 'NONE', #287, #276, #335, .T. ) ;
#130 = EDGE_CURVE ( 'NONE', #286, #291, #334, .T. ) ;
#131 = LOCAL_TIME ( 9, 13, 15.00000000000000000, #369 ) ;
#132 = LOCAL_TIME ( 9, 13, 15.00000000000000000, #364 ) ;
#133 = LOCAL_TIME ( 9, 13, 15.00000000000000000, #350 ) ;
#134 = PLANE ( 'NONE',  #40 ) ;
#135 = CARTESIAN_POINT ( 'NONE',  ( -6.500000000000000000, -6.000000000000000000, -20.00000000000000000 ) ) ;
#136 = DIRECTION ( 'NONE',  ( -0.0000000000000000000, 0.0000000000000000000, 1.000000000000000000 ) ) ;
#137 = DIRECTION ( 'NONE',  ( 1.000000000000000000, 0.0000000000000000000, 0.0000000000000000000 ) ) ;
#138 = PLANE ( 'NONE',  #83 ) ;
#139 = CARTESIAN_POINT ( 'NONE',  ( -6.500000000000000000, -6.000000000000000000, 20.00000000000000000 ) ) ;
#140 = DIRECTION ( 'NONE',  ( -0.0000000000000000000, 0.0000000000000000000, 1.000000000000000000 ) ) ;
#141 = DIRECTION ( 'NONE',  ( 1.000000000000000000, 0.0000000000000000000, 0.0000000000000000000 ) ) ;
#142 = CARTESIAN_POINT ( 'NONE',  ( 4.500000000000000900, -5.999999999999999100, 20.00000000000000000 ) ) ;
#143 = DIRECTION ( 'NONE',  ( -0.0000000000000000000, -0.0000000000000000000, -1.000000000000000000 ) ) ;
#144 = PLANE ( 'NONE',  #64 ) ;
#145 = CARTESIAN_POINT ( 'NONE',  ( -4.499999999999999100, -6.000000000000000000, 20.00000000000000000 ) ) ;
#146 = DIRECTION ( 'NONE',  ( -9.637352644315595200E-017, 1.000000000000000000, 0.0000000000000000000 ) ) ;
#147 = DIRECTION ( 'NONE',  ( -1.000000000000000000, -9.637352644315595200E-017, 0.0000000000000000000 ) ) ;
#148 = CARTESIAN_POINT ( 'NONE',  ( 0.0000000000000000000, -6.000000000000000900, 0.0000000000000000000 ) ) ;
#149 = DIRECTION ( 'NONE',  ( -0.0000000000000000000, 1.000000000000000000, -0.0000000000000000000 ) ) ;
#150 = DIRECTION ( 'NONE',  ( 0.0000000000000000000, 0.0000000000000000000, 1.000000000000000000 ) ) ;
#151 = PLANE ( 'NONE',  #54 ) ;
#152 = CARTESIAN_POINT ( 'NONE',  ( 6.500000000000001800, -4.000000000000020400, 20.00000000000000000 ) ) ;
#153 = DIRECTION ( 'NONE',  ( -0.7071067811865436900, 0.7071067811865513500, 0.0000000000000000000 ) ) ;
#154 = DIRECTION ( 'NONE',  ( -0.7071067811865513500, -0.7071067811865436900, 0.0000000000000000000 ) ) ;
#155 = CARTESIAN_POINT ( 'NONE',  ( 0.0000000000000000000, 0.0000000000000000000, 0.0000000000000000000 ) ) ;
#156 = DIRECTION ( 'NONE',  ( -0.0000000000000000000, 1.000000000000000000, -0.0000000000000000000 ) ) ;
#157 = DIRECTION ( 'NONE',  ( 0.0000000000000000000, 0.0000000000000000000, 1.000000000000000000 ) ) ;
#158 = CARTESIAN_POINT ( 'NONE',  ( -4.499999999999999100, -6.000000000000000000, -20.00000000000000000 ) ) ;
#159 = DIRECTION ( 'NONE',  ( 1.000000000000000000, 9.637352644315595200E-017, 0.0000000000000000000 ) ) ;
#160 = CARTESIAN_POINT ( 'NONE',  ( 6.500000000000001800, -4.000000000000020400, 20.00000000000000000 ) ) ;
#161 = DIRECTION ( 'NONE',  ( -0.0000000000000000000, -0.0000000000000000000, -1.000000000000000000 ) ) ;
#162 = CARTESIAN_POINT ( 'NONE',  ( -6.500000000000000000, 0.0000000000000000000, 20.00000000000000000 ) ) ;
#163 = DIRECTION ( 'NONE',  ( -0.0000000000000000000, -0.0000000000000000000, -1.000000000000000000 ) ) ;
#164 = CARTESIAN_POINT ( 'NONE',  ( -6.500000000000000000, -4.000000000000022200, -20.00000000000000000 ) ) ;
#165 = DIRECTION ( 'NONE',  ( 0.7071067811865514600, -0.7071067811865435800, 0.0000000000000000000 ) ) ;
#166 = CARTESIAN_POINT ( 'NONE',  ( -6.500000000000000000, 0.0000000000000000000, 20.00000000000000000 ) ) ;
#167 = DIRECTION ( 'NONE',  ( 0.0000000000000000000, -1.000000000000000000, 0.0000000000000000000 ) ) ;
#168 = CARTESIAN_POINT ( 'NONE',  ( -4.499999999999999100, -6.000000000000000000, 20.00000000000000000 ) ) ;
#169 = DIRECTION ( 'NONE',  ( -0.0000000000000000000, -0.0000000000000000000, -1.000000000000000000 ) ) ;
#170 = CARTESIAN_POINT ( 'NONE',  ( 4.163799117100992700E-016, 0.0000000000000000000, -3.399999999999993200 ) ) ;
#171 = DIRECTION ( 'NONE',  ( -0.0000000000000000000, 1.000000000000000000, -0.0000000000000000000 ) ) ;
#172 = CARTESIAN_POINT ( 'NONE',  ( 0.0000000000000000000, -6.000000000000000900, 0.0000000000000000000 ) ) ;
#173 = DIRECTION ( 'NONE',  ( -0.0000000000000000000, 1.000000000000000000, -0.0000000000000000000 ) ) ;
#174 = DIRECTION ( 'NONE',  ( 0.0000000000000000000, 0.0000000000000000000, 1.000000000000000000 ) ) ;
#175 = CARTESIAN_POINT ( 'NONE',  ( 6.500000000000000000, 1.591988259969090200E-015, 20.00000000000000000 ) ) ;
#176 = DIRECTION ( 'NONE',  ( -0.0000000000000000000, -0.0000000000000000000, -1.000000000000000000 ) ) ;
#177 = CARTESIAN_POINT ( 'NONE',  ( 6.500000000000000000, 1.591988259969090200E-015, -20.00000000000000000 ) ) ;
#178 = DIRECTION ( 'NONE',  ( -4.336808689941994100E-016, 1.000000000000000000, -0.0000000000000000000 ) ) ;
#179 = CARTESIAN_POINT ( 'NONE',  ( 6.500000000000000000, 1.591988259969090200E-015, 20.00000000000000000 ) ) ;
#180 = DIRECTION ( 'NONE',  ( -4.336808689941994100E-016, 1.000000000000000000, -0.0000000000000000000 ) ) ;
#181 = CARTESIAN_POINT ( 'NONE',  ( 0.0000000000000000000, 1.138883909054807900E-015, 0.0000000000000000000 ) ) ;
#182 = DIRECTION ( 'NONE',  ( -0.0000000000000000000, 1.000000000000000000, -0.0000000000000000000 ) ) ;
#183 = DIRECTION ( 'NONE',  ( 0.0000000000000000000, 0.0000000000000000000, 1.000000000000000000 ) ) ;
#184 = CARTESIAN_POINT ( 'NONE',  ( -6.500000000000000000, 0.0000000000000000000, -20.00000000000000000 ) ) ;
#185 = DIRECTION ( 'NONE',  ( -1.000000000000000000, -1.224606353822377300E-016, -0.0000000000000000000 ) ) ;
#186 = CARTESIAN_POINT ( 'NONE',  ( -6.500000000000000000, 0.0000000000000000000, 20.00000000000000000 ) ) ;
#187 = DIRECTION ( 'NONE',  ( -1.000000000000000000, -1.224606353822377300E-016, -0.0000000000000000000 ) ) ;
#188 = CARTESIAN_POINT ( 'NONE',  ( 4.163799117100998600E-016, -6.000000000000000900, -3.399999999999998600 ) ) ;
#189 = CARTESIAN_POINT ( 'NONE',  ( 0.0000000000000000000, -6.000000000000000900, 3.399999999999998600 ) ) ;
#190 = CARTESIAN_POINT ( 'NONE',  ( 0.0000000000000000000, 1.138883909054807900E-015, 3.399999999999987900 ) ) ;
#191 = CARTESIAN_POINT ( 'NONE',  ( 4.163799117100989200E-016, 1.138883909054807900E-015, -3.399999999999987900 ) ) ;
#192 = CARTESIAN_POINT ( 'NONE',  ( -6.500000000000000000, 0.0000000000000000000, -20.00000000000000000 ) ) ;
#193 = CARTESIAN_POINT ( 'NONE',  ( 6.500000000000001800, -4.000000000000020400, -20.00000000000000000 ) ) ;
#194 = CARTESIAN_POINT ( 'NONE',  ( 6.500000000000001800, -4.000000000000020400, 20.00000000000000000 ) ) ;
#195 = CARTESIAN_POINT ( 'NONE',  ( 4.500000000000000900, -5.999999999999999100, 20.00000000000000000 ) ) ;
#196 = CARTESIAN_POINT ( 'NONE',  ( 6.500000000000000000, 1.591988259969090200E-015, 20.00000000000000000 ) ) ;
#197 = CARTESIAN_POINT ( 'NONE',  ( 6.500000000000000000, 1.591988259969090200E-015, -20.00000000000000000 ) ) ;
#198 = CARTESIAN_POINT ( 'NONE',  ( -4.499999999999999100, -6.000000000000000000, 20.00000000000000000 ) ) ;
#199 = CARTESIAN_POINT ( 'NONE',  ( 4.500000000000000900, -5.999999999999999100, -20.00000000000000000 ) ) ;
#200 = CARTESIAN_POINT ( 'NONE',  ( -4.499999999999999100, -6.000000000000000000, -20.00000000000000000 ) ) ;
#201 = CARTESIAN_POINT ( 'NONE',  ( -6.500000000000000000, 0.0000000000000000000, 20.00000000000000000 ) ) ;
#202 = CARTESIAN_POINT ( 'NONE',  ( -6.500000000000000000, -4.000000000000022200, 20.00000000000000000 ) ) ;
#203 = CARTESIAN_POINT ( 'NONE',  ( -6.500000000000000000, -4.000000000000022200, -20.00000000000000000 ) ) ;
#204 =( LENGTH_UNIT ( ) NAMED_UNIT ( * ) SI_UNIT ( .MILLI., .METRE. ) );
#205 =( NAMED_UNIT ( * ) PLANE_ANGLE_UNIT ( ) SI_UNIT ( $, .RADIAN. ) );
#206 =( NAMED_UNIT ( * ) SI_UNIT ( $, .STERADIAN. ) SOLID_ANGLE_UNIT ( ) );
#207 = CARTESIAN_POINT ( 'NONE',  ( 0.0000000000000000000, 0.0000000000000000000, 0.0000000000000000000 ) ) ;
#208 = DIRECTION ( 'NONE',  ( 0.0000000000000000000, 0.0000000000000000000, 1.000000000000000000 ) ) ;
#209 = DIRECTION ( 'NONE',  ( 1.000000000000000000, 0.0000000000000000000, 0.0000000000000000000 ) ) ;
#210 = APPLICATION_CONTEXT ( 'configuration controlled 3d designs of mechanical parts and assemblies' ) ;
#211 = APPLICATION_PROTOCOL_DEFINITION ( 'international standard', 'config_control_design', 1994, #210 ) ;
#212 = MECHANICAL_CONTEXT ( 'NONE', #210, 'mechanical' ) ;
#213 = PERSON_AND_ORGANIZATION_ROLE ( 'design_owner' ) ;
#214 = APPLICATION_CONTEXT ( 'configuration controlled 3d designs of mechanical parts and assemblies' ) ;
#215 = APPLICATION_PROTOCOL_DEFINITION ( 'international standard', 'config_control_design', 1994, #214 ) ;
#216 = APPROVAL_STATUS ( 'not_yet_approved' ) ;
#217 = APPROVAL_ROLE ( '' ) ;
#218 = PERSON_AND_ORGANIZATION_ROLE ( 'creator' ) ;
#219 = DATE_TIME_ROLE ( 'creation_date' ) ;
#220 = APPROVAL_STATUS ( 'not_yet_approved' ) ;
#221 = APPROVAL_ROLE ( '' ) ;
#222 = PERSON_AND_ORGANIZATION_ROLE ( 'creator' ) ;
#223 = PERSON_AND_ORGANIZATION_ROLE ( 'design_supplier' ) ;
#224 = SECURITY_CLASSIFICATION_LEVEL ( 'unclassified' ) ;
#225 = PERSON_AND_ORGANIZATION_ROLE ( 'classification_officer' ) ;
#226 = DATE_TIME_ROLE ( 'classification_date' ) ;
#227 = APPROVAL_STATUS ( 'not_yet_approved' ) ;
#228 = APPROVAL_ROLE ( '' ) ;
#229 = EDGE_LOOP ( 'NONE', ( #280, #297, #295, #299 ) ) ;
#230 = EDGE_LOOP ( 'NONE', ( #300, #301, #302, #298, #303, #304 ) ) ;
#231 = EDGE_LOOP ( 'NONE', ( #306, #236, #239, #305, #238, #241 ) ) ;
#232 = EDGE_LOOP ( 'NONE', ( #237, #234, #235, #240 ) ) ;
#233 = CLOSED_SHELL ( 'NONE', ( #96, #104, #108, #112, #114, #97, #98, #110, #109, #115 ) ) ;
#234 = ORIENTED_EDGE ( 'NONE', *, *, #113, .F. ) ;
#235 = ORIENTED_EDGE ( 'NONE', *, *, #106, .T. ) ;
#236 = ORIENTED_EDGE ( 'NONE', *, *, #129, .F. ) ;
#237 = ORIENTED_EDGE ( 'NONE', *, *, #123, .F. ) ;
#238 = ORIENTED_EDGE ( 'NONE', *, *, #117, .F. ) ;
#239 = ORIENTED_EDGE ( 'NONE', *, *, #126, .F. ) ;
#240 = ORIENTED_EDGE ( 'NONE', *, *, #128, .T. ) ;
#241 = ORIENTED_EDGE ( 'NONE', *, *, #120, .F. ) ;
#242 = ORIENTED_EDGE ( 'NONE', *, *, #124, .T. ) ;
#243 = ORIENTED_EDGE ( 'NONE', *, *, #111, .F. ) ;
#244 = ORIENTED_EDGE ( 'NONE', *, *, #122, .T. ) ;
#245 = ORIENTED_EDGE ( 'NONE', *, *, #113, .T. ) ;
#246 = ORIENTED_EDGE ( 'NONE', *, *, #99, .F. ) ;
#247 = ORIENTED_EDGE ( 'NONE', *, *, #107, .T. ) ;
#248 = ORIENTED_EDGE ( 'NONE', *, *, #121, .F. ) ;
#249 = ORIENTED_EDGE ( 'NONE', *, *, #101, .F. ) ;
#250 = ORIENTED_EDGE ( 'NONE', *, *, #119, .T. ) ;
#251 = ORIENTED_EDGE ( 'NONE', *, *, #117, .T. ) ;
#252 = ORIENTED_EDGE ( 'NONE', *, *, #101, .T. ) ;
#253 = ORIENTED_EDGE ( 'NONE', *, *, #122, .F. ) ;
#254 = ORIENTED_EDGE ( 'NONE', *, *, #120, .T. ) ;
#255 = ORIENTED_EDGE ( 'NONE', *, *, #100, .F. ) ;
#256 = ORIENTED_EDGE ( 'NONE', *, *, #124, .F. ) ;
#257 = ORIENTED_EDGE ( 'NONE', *, *, #106, .F. ) ;
#258 = VERTEX_POINT ( 'NONE', #188 ) ;
#259 = ORIENTED_EDGE ( 'NONE', *, *, #123, .T. ) ;
#260 = ORIENTED_EDGE ( 'NONE', *, *, #105, .T. ) ;
#261 = ORIENTED_EDGE ( 'NONE', *, *, #111, .T. ) ;
#262 = ORIENTED_EDGE ( 'NONE', *, *, #103, .T. ) ;
#263 = ORIENTED_EDGE ( 'NONE', *, *, #118, .F. ) ;
#264 = ORIENTED_EDGE ( 'NONE', *, *, #102, .F. ) ;
#265 = ORIENTED_EDGE ( 'NONE', *, *, #126, .T. ) ;
#266 = ORIENTED_EDGE ( 'NONE', *, *, #127, .F. ) ;
#267 = VERTEX_POINT ( 'NONE', #189 ) ;
#268 = ORIENTED_EDGE ( 'NONE', *, *, #125, .F. ) ;
#269 = VERTEX_POINT ( 'NONE', #190 ) ;
#270 = VERTEX_POINT ( 'NONE', #191 ) ;
#271 = EDGE_LOOP ( 'NONE', ( #247, #249, #248, #250 ) ) ;
#272 = EDGE_LOOP ( 'NONE', ( #256, #259, #260, #257 ) ) ;
#273 = EDGE_LOOP ( 'NONE', ( #294, #296 ) ) ;
#274 = EDGE_LOOP ( 'NONE', ( #265, #268, #266, #279 ) ) ;
#275 = LINE ( 'NONE', #26, #53 ) ;
#276 = VERTEX_POINT ( 'NONE', #192 ) ;
#277 = EDGE_LOOP ( 'NONE', ( #262, #263, #264, #261 ) ) ;
#278 = EDGE_LOOP ( 'NONE', ( #254, #253, #255, #252 ) ) ;
#279 = ORIENTED_EDGE ( 'NONE', *, *, #118, .T. ) ;
#280 = ORIENTED_EDGE ( 'NONE', *, *, #129, .T. ) ;
#281 = LINE ( 'NONE', #9, #75 ) ;
#282 = EDGE_LOOP ( 'NONE', ( #251, #243, #246, #244 ) ) ;
#283 = VERTEX_POINT ( 'NONE', #193 ) ;
#284 = VERTEX_POINT ( 'NONE', #194 ) ;
#285 = VERTEX_POINT ( 'NONE', #195 ) ;
#286 = VERTEX_POINT ( 'NONE', #196 ) ;
#287 = VERTEX_POINT ( 'NONE', #197 ) ;
#288 = VERTEX_POINT ( 'NONE', #198 ) ;
#289 = VERTEX_POINT ( 'NONE', #199 ) ;
#290 = VERTEX_POINT ( 'NONE', #200 ) ;
#291 = VERTEX_POINT ( 'NONE', #201 ) ;
#292 = VERTEX_POINT ( 'NONE', #202 ) ;
#293 = VERTEX_POINT ( 'NONE', #203 ) ;
#294 = ORIENTED_EDGE ( 'NONE', *, *, #128, .F. ) ;
#295 = ORIENTED_EDGE ( 'NONE', *, *, #130, .F. ) ;
#296 = ORIENTED_EDGE ( 'NONE', *, *, #105, .F. ) ;
#297 = ORIENTED_EDGE ( 'NONE', *, *, #119, .F. ) ;
#298 = ORIENTED_EDGE ( 'NONE', *, *, #102, .T. ) ;
#299 = ORIENTED_EDGE ( 'NONE', *, *, #125, .T. ) ;
#300 = ORIENTED_EDGE ( 'NONE', *, *, #121, .T. ) ;
#301 = ORIENTED_EDGE ( 'NONE', *, *, #100, .T. ) ;
#302 = ORIENTED_EDGE ( 'NONE', *, *, #99, .T. ) ;
#303 = ORIENTED_EDGE ( 'NONE', *, *, #127, .T. ) ;
#304 = ORIENTED_EDGE ( 'NONE', *, *, #130, .T. ) ;
#305 = ORIENTED_EDGE ( 'NONE', *, *, #103, .F. ) ;
#306 = ORIENTED_EDGE ( 'NONE', *, *, #107, .F. ) ;
#307 = FACE_OUTER_BOUND ( 'NONE', #272, .T. ) ;
#308 = CYLINDRICAL_SURFACE ( 'NONE', #79, 3.399999999999993200 ) ;
#309 = FACE_OUTER_BOUND ( 'NONE', #274, .T. ) ;
#310 = FACE_BOUND ( 'NONE', #273, .T. ) ;
#311 = FACE_OUTER_BOUND ( 'NONE', #229, .T. ) ;
#312 = LINE ( 'NONE', #28, #41 ) ;
#313 = LINE ( 'NONE', #24, #70 ) ;
#314 = FACE_OUTER_BOUND ( 'NONE', #231, .T. ) ;
#315 = LINE ( 'NONE', #23, #77 ) ;
#316 = EDGE_LOOP ( 'NONE', ( #245, #242 ) ) ;
#317 = FACE_OUTER_BOUND ( 'NONE', #232, .T. ) ;
#318 = FACE_OUTER_BOUND ( 'NONE', #230, .T. ) ;
#319 = LINE ( 'NONE', #142, #60 ) ;
#320 = FACE_OUTER_BOUND ( 'NONE', #278, .T. ) ;
#321 = LINE ( 'NONE', #4, #47 ) ;
#322 = LINE ( 'NONE', #6, #68 ) ;
#323 = FACE_OUTER_BOUND ( 'NONE', #271, .T. ) ;
#324 = LINE ( 'NONE', #168, #66 ) ;
#325 = LINE ( 'NONE', #166, #59 ) ;
#326 = LINE ( 'NONE', #164, #71 ) ;
#327 = LINE ( 'NONE', #162, #90 ) ;
#328 = LINE ( 'NONE', #160, #74 ) ;
#329 = LINE ( 'NONE', #158, #80 ) ;
#330 = CYLINDRICAL_SURFACE ( 'NONE', #87, 3.399999999999993200 ) ;
#331 = FACE_OUTER_BOUND ( 'NONE', #277, .T. ) ;
#332 = FACE_OUTER_BOUND ( 'NONE', #282, .T. ) ;
#333 = FACE_BOUND ( 'NONE', #316, .T. ) ;
#334 = LINE ( 'NONE', #186, #92 ) ;
#335 = LINE ( 'NONE', #184, #50 ) ;
#336 = LINE ( 'NONE', #179, #48 ) ;
#337 = LINE ( 'NONE', #177, #81 ) ;
#338 = LINE ( 'NONE', #175, #57 ) ;
#339 = LINE ( 'NONE', #170, #69 ) ;
#340 = APPROVAL_PERSON_ORGANIZATION ( #343, #51, #217 ) ;
#341 = APPROVAL_DATE_TIME ( #348, #37 ) ;
#342 = COORDINATED_UNIVERSAL_TIME_OFFSET ( 1, 0, .AHEAD. ) ;
#343 = PERSON_AND_ORGANIZATION ( #373, #345 ) ;
#344 = PERSON_AND_ORGANIZATION ( #373, #345 ) ;
#345 = ORGANIZATION ( 'NON SPECIFICATO', 'NON SPECIFICATO', '' ) ;
#346 = SHAPE_DEFINITION_REPRESENTATION ( #376, #374 ) ;
#347 = PERSON_AND_ORGANIZATION ( #373, #345 ) ;
#348 = DATE_AND_TIME ( #349, #133 ) ;
#349 = CALENDAR_DATE ( 2013, 25, 1 ) ;
#350 = COORDINATED_UNIVERSAL_TIME_OFFSET ( 1, 0, .AHEAD. ) ;
#351 = APPROVAL_PERSON_ORGANIZATION ( #352, #37, #221 ) ;
#352 = PERSON_AND_ORGANIZATION ( #373, #345 ) ;
#353 = DATE_AND_TIME ( #354, #94 ) ;
#354 = CALENDAR_DATE ( 2013, 25, 1 ) ;
#355 = COORDINATED_UNIVERSAL_TIME_OFFSET ( 1, 0, .AHEAD. ) ;
#356 = PERSON_AND_ORGANIZATION ( #373, #345 ) ;
#357 = APPROVAL_DATE_TIME ( #358, #51 ) ;
#358 = DATE_AND_TIME ( #359, #95 ) ;
#359 = CALENDAR_DATE ( 2013, 25, 1 ) ;
#360 = PERSON_AND_ORGANIZATION ( #373, #345 ) ;
#361 = APPROVAL_DATE_TIME ( #362, #93 ) ;
#362 = DATE_AND_TIME ( #363, #132 ) ;
#363 = CALENDAR_DATE ( 2013, 25, 1 ) ;
#364 = COORDINATED_UNIVERSAL_TIME_OFFSET ( 1, 0, .AHEAD. ) ;
#365 = APPROVAL_PERSON_ORGANIZATION ( #366, #93, #228 ) ;
#366 = PERSON_AND_ORGANIZATION ( #373, #345 ) ;
#367 = DATE_AND_TIME ( #368, #131 ) ;
#368 = CALENDAR_DATE ( 2013, 25, 1 ) ;
#369 = COORDINATED_UNIVERSAL_TIME_OFFSET ( 1, 0, .AHEAD. ) ;
#370 = PERSON_AND_ORGANIZATION ( #373, #345 ) ;
#371 = UNCERTAINTY_MEASURE_WITH_UNIT (LENGTH_MEASURE( 1.000000000000000100E-005 ), #204, 'distance_accuracy_value', 'NONE');
#372 = PRODUCT ( '084.302.012', '084.302.012', '', ( #212 ) ) ;
#373 = PERSON ( 'NON SPECIFICATO', 'NON SPECIFICATO', 'NON SPECIFICATO', ('NON SPECIFICATO'), ('NON SPECIFICATO'), ('NON SPECIFICATO') ) ;
#374 = ADVANCED_BREP_SHAPE_REPRESENTATION ( '084.302.012', ( #375, #42 ), #116 ) ;
#375 = MANIFOLD_SOLID_BREP ( 'M8x1.25 Foro filettato profondo1', #233 ) ;
#376 = PRODUCT_DEFINITION_SHAPE ( 'NONE', 'NONE',  #52 ) ;
#377 = DESIGN_CONTEXT ( 'detailed design', #214, 'design' ) ;
ENDSEC;
END-ISO-10303-21;
