ISO-10303-21;
HEADER;
FILE_DESCRIPTION (( 'STEP AP203' ),
    '1' );
FILE_NAME ('084.302.011.STEP',
    '2013-01-25T08:12:41',
    ( 'Alusic' ),
    ( 'Alusic' ),
    'SwSTEP 2.0',
    'SolidWorks 2011',
    '' );
FILE_SCHEMA (( 'CONFIG_CONTROL_DESIGN' ));
ENDSEC;

DATA;
#1 = VECTOR ( 'NONE', #97, 1000.000000000000000 ) ;
#2 = VECTOR ( 'NONE', #112, 1000.000000000000000 ) ;
#3 = AXIS2_PLACEMENT_3D ( 'NONE', #42, #37, #40 ) ;
#4 = AXIS2_PLACEMENT_3D ( 'NONE', #84, #85, #86 ) ;
#5 = VECTOR ( 'NONE', #46, 1000.000000000000000 ) ;
#6 = VECTOR ( 'NONE', #104, 1000.000000000000000 ) ;
#7 = CIRCLE ( 'NONE', #3, 3.399999999999987900 ) ;
#8 = VECTOR ( 'NONE', #38, 1000.000000000000000 ) ;
#9 = CIRCLE ( 'NONE', #32, 3.399999999999998600 ) ;
#10 = AXIS2_PLACEMENT_3D ( 'NONE', #80, #81, #82 ) ;
#11 = AXIS2_PLACEMENT_3D ( 'NONE', #58, #44, #43 ) ;
#12 = AXIS2_PLACEMENT_3D ( 'NONE', #54, #64, #63 ) ;
#13 = VECTOR ( 'NONE', #102, 1000.000000000000000 ) ;
#14 = AXIS2_PLACEMENT_3D ( 'NONE', #36, #67, #66 ) ;
#15 = AXIS2_PLACEMENT_3D ( 'NONE', #76, #77, #78 ) ;
#16 = VECTOR ( 'NONE', #106, 1000.000000000000000 ) ;
#17 = AXIS2_PLACEMENT_3D ( 'NONE', #98, #99, #100 ) ;
#18 = VECTOR ( 'NONE', #110, 1000.000000000000000 ) ;
#19 = AXIS2_PLACEMENT_3D ( 'NONE', #52, #51, #53 ) ;
#20 = VECTOR ( 'NONE', #92, 1000.000000000000000 ) ;
#21 = CIRCLE ( 'NONE', #17, 3.399999999999987900 ) ;
#22 = VECTOR ( 'NONE', #108, 1000.000000000000000 ) ;
#23 = VECTOR ( 'NONE', #41, 1000.000000000000000 ) ;
#24 = VECTOR ( 'NONE', #69, 1000.000000000000000 ) ;
#25 = AXIS2_PLACEMENT_3D ( 'NONE', #50, #49, #48 ) ;
#26 = AXIS2_PLACEMENT_3D ( 'NONE', #88, #89, #90 ) ;
#27 = VECTOR ( 'NONE', #57, 1000.000000000000000 ) ;
#28 = VECTOR ( 'NONE', #71, 1000.000000000000000 ) ;
#29 = VECTOR ( 'NONE', #61, 1000.000000000000000 ) ;
#30 = AXIS2_PLACEMENT_3D ( 'NONE', #73, #74, #75 ) ;
#31 = CIRCLE ( 'NONE', #367, 3.399999999999998600 ) ;
#32 = AXIS2_PLACEMENT_3D ( 'NONE', #93, #94, #95 ) ;
#33 = VECTOR ( 'NONE', #59, 1000.000000000000000 ) ;
#34 = PLANE ( 'NONE',  #14 ) ;
#35 = PLANE ( 'NONE',  #25 ) ;
#36 = CARTESIAN_POINT ( 'NONE',  ( -6.500000000000000000, -6.000000000000000000, -12.50000000000000000 ) ) ;
#37 = DIRECTION ( 'NONE',  ( -0.0000000000000000000, 1.000000000000000000, -0.0000000000000000000 ) ) ;
#38 = DIRECTION ( 'NONE',  ( -1.000000000000000000, -1.224606353822377300E-016, -0.0000000000000000000 ) ) ;
#39 = CARTESIAN_POINT ( 'NONE',  ( -6.500000000000000000, 0.0000000000000000000, 12.50000000000000000 ) ) ;
#40 = DIRECTION ( 'NONE',  ( 0.0000000000000000000, 0.0000000000000000000, 1.000000000000000000 ) ) ;
#41 = DIRECTION ( 'NONE',  ( -1.000000000000000000, -1.224606353822377300E-016, -0.0000000000000000000 ) ) ;
#42 = CARTESIAN_POINT ( 'NONE',  ( 0.0000000000000000000, 1.138883909054807900E-015, 0.0000000000000000000 ) ) ;
#43 = DIRECTION ( 'NONE',  ( 0.0000000000000000000, 0.0000000000000000000, 1.000000000000000000 ) ) ;
#44 = DIRECTION ( 'NONE',  ( -0.0000000000000000000, 1.000000000000000000, -0.0000000000000000000 ) ) ;
#45 = CARTESIAN_POINT ( 'NONE',  ( -6.500000000000000000, 0.0000000000000000000, -12.50000000000000000 ) ) ;
#46 = DIRECTION ( 'NONE',  ( -0.0000000000000000000, -0.0000000000000000000, -1.000000000000000000 ) ) ;
#47 = CARTESIAN_POINT ( 'NONE',  ( 6.500000000000001800, -4.000000000000020400, 12.50000000000000000 ) ) ;
#48 = DIRECTION ( 'NONE',  ( 4.336808689941994100E-016, -1.000000000000000000, 0.0000000000000000000 ) ) ;
#49 = DIRECTION ( 'NONE',  ( -1.000000000000000000, -4.336808689941994100E-016, 0.0000000000000000000 ) ) ;
#50 = CARTESIAN_POINT ( 'NONE',  ( 6.500000000000000000, 1.591988259969090200E-015, 12.50000000000000000 ) ) ;
#51 = DIRECTION ( 'NONE',  ( -9.637352644315596500E-017, 1.000000000000000000, 0.0000000000000000000 ) ) ;
#52 = CARTESIAN_POINT ( 'NONE',  ( -4.499999999999999100, -6.000000000000000000, 12.50000000000000000 ) ) ;
#53 = DIRECTION ( 'NONE',  ( -1.000000000000000000, -9.637352644315596500E-017, 0.0000000000000000000 ) ) ;
#54 = CARTESIAN_POINT ( 'NONE',  ( -6.500000000000000000, 0.0000000000000000000, 12.50000000000000000 ) ) ;
#55 = PLANE ( 'NONE',  #12 ) ;
#56 = CARTESIAN_POINT ( 'NONE',  ( -6.500000000000000000, 0.0000000000000000000, 12.50000000000000000 ) ) ;
#57 = DIRECTION ( 'NONE',  ( -0.0000000000000000000, -0.0000000000000000000, -1.000000000000000000 ) ) ;
#58 = CARTESIAN_POINT ( 'NONE',  ( 0.0000000000000000000, 0.0000000000000000000, 0.0000000000000000000 ) ) ;
#59 = DIRECTION ( 'NONE',  ( 1.000000000000000000, 9.637352644315595200E-017, 0.0000000000000000000 ) ) ;
#60 = CARTESIAN_POINT ( 'NONE',  ( -4.499999999999999100, -6.000000000000000000, 12.50000000000000000 ) ) ;
#61 = DIRECTION ( 'NONE',  ( -4.336808689941994100E-016, 1.000000000000000000, -0.0000000000000000000 ) ) ;
#62 = CARTESIAN_POINT ( 'NONE',  ( 6.500000000000000000, 1.591988259969090200E-015, 12.50000000000000000 ) ) ;
#63 = DIRECTION ( 'NONE',  ( -0.0000000000000000000, 0.0000000000000000000, -1.000000000000000000 ) ) ;
#64 = DIRECTION ( 'NONE',  ( 1.000000000000000000, 0.0000000000000000000, -0.0000000000000000000 ) ) ;
#65 = PLANE ( 'NONE',  #19 ) ;
#66 = DIRECTION ( 'NONE',  ( 1.000000000000000000, 0.0000000000000000000, 0.0000000000000000000 ) ) ;
#67 = DIRECTION ( 'NONE',  ( -0.0000000000000000000, 0.0000000000000000000, 1.000000000000000000 ) ) ;
#68 = CARTESIAN_POINT ( 'NONE',  ( -6.500000000000000000, 0.0000000000000000000, 12.50000000000000000 ) ) ;
#69 = DIRECTION ( 'NONE',  ( 0.0000000000000000000, -1.000000000000000000, 0.0000000000000000000 ) ) ;
#70 = CARTESIAN_POINT ( 'NONE',  ( 6.500000000000001800, -4.000000000000020400, 12.50000000000000000 ) ) ;
#71 = DIRECTION ( 'NONE',  ( 0.7071067811865513500, 0.7071067811865436900, -0.0000000000000000000 ) ) ;
#72 = PLANE ( 'NONE',  #30 ) ;
#73 = CARTESIAN_POINT ( 'NONE',  ( -6.500000000000000000, -6.000000000000000000, 12.50000000000000000 ) ) ;
#74 = DIRECTION ( 'NONE',  ( -0.0000000000000000000, 0.0000000000000000000, 1.000000000000000000 ) ) ;
#75 = DIRECTION ( 'NONE',  ( 1.000000000000000000, 0.0000000000000000000, 0.0000000000000000000 ) ) ;
#76 = CARTESIAN_POINT ( 'NONE',  ( 0.0000000000000000000, 0.0000000000000000000, 0.0000000000000000000 ) ) ;
#77 = DIRECTION ( 'NONE',  ( -0.0000000000000000000, 1.000000000000000000, -0.0000000000000000000 ) ) ;
#78 = DIRECTION ( 'NONE',  ( 0.0000000000000000000, 0.0000000000000000000, 1.000000000000000000 ) ) ;
#79 = PLANE ( 'NONE',  #10 ) ;
#80 = CARTESIAN_POINT ( 'NONE',  ( -6.500000000000000000, -4.000000000000022200, 12.50000000000000000 ) ) ;
#81 = DIRECTION ( 'NONE',  ( 0.7071067811865435800, 0.7071067811865514600, -0.0000000000000000000 ) ) ;
#82 = DIRECTION ( 'NONE',  ( -0.7071067811865514600, 0.7071067811865435800, 0.0000000000000000000 ) ) ;
#83 = PLANE ( 'NONE',  #4 ) ;
#84 = CARTESIAN_POINT ( 'NONE',  ( 6.500000000000001800, -4.000000000000020400, 12.50000000000000000 ) ) ;
#85 = DIRECTION ( 'NONE',  ( -0.7071067811865438000, 0.7071067811865513500, 0.0000000000000000000 ) ) ;
#86 = DIRECTION ( 'NONE',  ( -0.7071067811865513500, -0.7071067811865438000, 0.0000000000000000000 ) ) ;
#87 = PLANE ( 'NONE',  #26 ) ;
#88 = CARTESIAN_POINT ( 'NONE',  ( -6.500000000000000000, 0.0000000000000000000, 12.50000000000000000 ) ) ;
#89 = DIRECTION ( 'NONE',  ( 1.224606353822377500E-016, -1.000000000000000000, 0.0000000000000000000 ) ) ;
#90 = DIRECTION ( 'NONE',  ( 1.000000000000000000, 1.224606353822377500E-016, 0.0000000000000000000 ) ) ;
#91 = CARTESIAN_POINT ( 'NONE',  ( -4.499999999999999100, -6.000000000000000000, -12.50000000000000000 ) ) ;
#92 = DIRECTION ( 'NONE',  ( 1.000000000000000000, 9.637352644315595200E-017, 0.0000000000000000000 ) ) ;
#93 = CARTESIAN_POINT ( 'NONE',  ( 0.0000000000000000000, -6.000000000000000900, 0.0000000000000000000 ) ) ;
#94 = DIRECTION ( 'NONE',  ( -0.0000000000000000000, 1.000000000000000000, -0.0000000000000000000 ) ) ;
#95 = DIRECTION ( 'NONE',  ( 0.0000000000000000000, 0.0000000000000000000, 1.000000000000000000 ) ) ;
#96 = CARTESIAN_POINT ( 'NONE',  ( 4.500000000000000900, -5.999999999999999100, 12.50000000000000000 ) ) ;
#97 = DIRECTION ( 'NONE',  ( -0.0000000000000000000, -0.0000000000000000000, -1.000000000000000000 ) ) ;
#98 = CARTESIAN_POINT ( 'NONE',  ( 0.0000000000000000000, 1.138883909054807900E-015, 0.0000000000000000000 ) ) ;
#99 = DIRECTION ( 'NONE',  ( -0.0000000000000000000, 1.000000000000000000, -0.0000000000000000000 ) ) ;
#100 = DIRECTION ( 'NONE',  ( 0.0000000000000000000, 0.0000000000000000000, 1.000000000000000000 ) ) ;
#101 = CARTESIAN_POINT ( 'NONE',  ( 6.500000000000000000, 1.591988259969090200E-015, -12.50000000000000000 ) ) ;
#102 = DIRECTION ( 'NONE',  ( -4.336808689941994100E-016, 1.000000000000000000, -0.0000000000000000000 ) ) ;
#103 = CARTESIAN_POINT ( 'NONE',  ( 0.0000000000000000000, 0.0000000000000000000, 3.399999999999993200 ) ) ;
#104 = DIRECTION ( 'NONE',  ( -0.0000000000000000000, 1.000000000000000000, -0.0000000000000000000 ) ) ;
#105 = CARTESIAN_POINT ( 'NONE',  ( -6.500000000000000000, -4.000000000000022200, 12.50000000000000000 ) ) ;
#106 = DIRECTION ( 'NONE',  ( -0.0000000000000000000, -0.0000000000000000000, -1.000000000000000000 ) ) ;
#107 = CARTESIAN_POINT ( 'NONE',  ( 6.500000000000001800, -4.000000000000020400, -12.50000000000000000 ) ) ;
#108 = DIRECTION ( 'NONE',  ( 0.7071067811865513500, 0.7071067811865436900, -0.0000000000000000000 ) ) ;
#109 = CARTESIAN_POINT ( 'NONE',  ( 6.500000000000000000, 1.591988259969090200E-015, 12.50000000000000000 ) ) ;
#110 = DIRECTION ( 'NONE',  ( -0.0000000000000000000, -0.0000000000000000000, -1.000000000000000000 ) ) ;
#111 = CARTESIAN_POINT ( 'NONE',  ( -6.500000000000000000, 0.0000000000000000000, -12.50000000000000000 ) ) ;
#112 = DIRECTION ( 'NONE',  ( 0.0000000000000000000, -1.000000000000000000, 0.0000000000000000000 ) ) ;
#113 = CARTESIAN_POINT ( 'NONE',  ( -6.500000000000000000, -4.000000000000022200, 12.50000000000000000 ) ) ;
#114 = DIRECTION ( 'NONE',  ( 0.7071067811865514600, -0.7071067811865435800, 0.0000000000000000000 ) ) ;
#115 = CARTESIAN_POINT ( 'NONE',  ( -4.499999999999999100, -6.000000000000000000, 12.50000000000000000 ) ) ;
#116 = DIRECTION ( 'NONE',  ( -0.0000000000000000000, -0.0000000000000000000, -1.000000000000000000 ) ) ;
#117 = CARTESIAN_POINT ( 'NONE',  ( -6.500000000000000000, -4.000000000000022200, -12.50000000000000000 ) ) ;
#118 = DIRECTION ( 'NONE',  ( 0.7071067811865514600, -0.7071067811865435800, 0.0000000000000000000 ) ) ;
#119 = CARTESIAN_POINT ( 'NONE',  ( 4.163799117100992700E-016, 0.0000000000000000000, -3.399999999999993200 ) ) ;
#120 = DIRECTION ( 'NONE',  ( -0.0000000000000000000, 1.000000000000000000, -0.0000000000000000000 ) ) ;
#121 = CARTESIAN_POINT ( 'NONE',  ( 0.0000000000000000000, -6.000000000000000900, 0.0000000000000000000 ) ) ;
#122 = DIRECTION ( 'NONE',  ( -0.0000000000000000000, 1.000000000000000000, -0.0000000000000000000 ) ) ;
#123 = DIRECTION ( 'NONE',  ( 0.0000000000000000000, 0.0000000000000000000, 1.000000000000000000 ) ) ;
#124 = CARTESIAN_POINT ( 'NONE',  ( 6.500000000000000000, 1.591988259969090200E-015, 12.50000000000000000 ) ) ;
#125 = CARTESIAN_POINT ( 'NONE',  ( 6.500000000000000000, 1.591988259969090200E-015, -12.50000000000000000 ) ) ;
#126 = CARTESIAN_POINT ( 'NONE',  ( 6.500000000000001800, -4.000000000000020400, -12.50000000000000000 ) ) ;
#127 = CARTESIAN_POINT ( 'NONE',  ( 6.500000000000001800, -4.000000000000020400, 12.50000000000000000 ) ) ;
#128 = CARTESIAN_POINT ( 'NONE',  ( 4.500000000000000900, -5.999999999999999100, 12.50000000000000000 ) ) ;
#129 = CARTESIAN_POINT ( 'NONE',  ( 4.500000000000000900, -5.999999999999999100, -12.50000000000000000 ) ) ;
#130 = CARTESIAN_POINT ( 'NONE',  ( -4.499999999999999100, -6.000000000000000000, 12.50000000000000000 ) ) ;
#131 = CARTESIAN_POINT ( 'NONE',  ( -4.499999999999999100, -6.000000000000000000, -12.50000000000000000 ) ) ;
#132 = CARTESIAN_POINT ( 'NONE',  ( -6.500000000000000000, 0.0000000000000000000, 12.50000000000000000 ) ) ;
#133 = CARTESIAN_POINT ( 'NONE',  ( -6.500000000000000000, -4.000000000000022200, 12.50000000000000000 ) ) ;
#134 = CARTESIAN_POINT ( 'NONE',  ( -6.500000000000000000, -4.000000000000022200, -12.50000000000000000 ) ) ;
#135 = CARTESIAN_POINT ( 'NONE',  ( -6.500000000000000000, 0.0000000000000000000, -12.50000000000000000 ) ) ;
#136 = CARTESIAN_POINT ( 'NONE',  ( 4.163799117100998600E-016, -6.000000000000000900, -3.399999999999998600 ) ) ;
#137 = CARTESIAN_POINT ( 'NONE',  ( 0.0000000000000000000, -6.000000000000000900, 3.399999999999998600 ) ) ;
#138 = CARTESIAN_POINT ( 'NONE',  ( 0.0000000000000000000, 1.138883909054807900E-015, 3.399999999999987900 ) ) ;
#139 = CARTESIAN_POINT ( 'NONE',  ( 4.163799117100989200E-016, 1.138883909054807900E-015, -3.399999999999987900 ) ) ;
#140 =( LENGTH_UNIT ( ) NAMED_UNIT ( * ) SI_UNIT ( .MILLI., .METRE. ) );
#141 =( NAMED_UNIT ( * ) PLANE_ANGLE_UNIT ( ) SI_UNIT ( $, .RADIAN. ) );
#142 =( NAMED_UNIT ( * ) SI_UNIT ( $, .STERADIAN. ) SOLID_ANGLE_UNIT ( ) );
#143 = CARTESIAN_POINT ( 'NONE',  ( 0.0000000000000000000, 0.0000000000000000000, 0.0000000000000000000 ) ) ;
#144 = DIRECTION ( 'NONE',  ( 0.0000000000000000000, 0.0000000000000000000, 1.000000000000000000 ) ) ;
#145 = DIRECTION ( 'NONE',  ( 1.000000000000000000, 0.0000000000000000000, 0.0000000000000000000 ) ) ;
#146 = APPLICATION_CONTEXT ( 'configuration controlled 3d designs of mechanical parts and assemblies' ) ;
#147 = APPLICATION_PROTOCOL_DEFINITION ( 'international standard', 'config_control_design', 1994, #146 ) ;
#148 = MECHANICAL_CONTEXT ( 'NONE', #146, 'mechanical' ) ;
#149 = PERSON_AND_ORGANIZATION_ROLE ( 'design_owner' ) ;
#150 = APPLICATION_CONTEXT ( 'configuration controlled 3d designs of mechanical parts and assemblies' ) ;
#151 = APPLICATION_PROTOCOL_DEFINITION ( 'international standard', 'config_control_design', 1994, #150 ) ;
#152 = APPROVAL_STATUS ( 'not_yet_approved' ) ;
#153 = APPROVAL_ROLE ( '' ) ;
#154 = PERSON_AND_ORGANIZATION_ROLE ( 'creator' ) ;
#155 = DATE_TIME_ROLE ( 'creation_date' ) ;
#156 = APPROVAL_STATUS ( 'not_yet_approved' ) ;
#157 = APPROVAL_ROLE ( '' ) ;
#158 = PERSON_AND_ORGANIZATION_ROLE ( 'creator' ) ;
#159 = PERSON_AND_ORGANIZATION_ROLE ( 'design_supplier' ) ;
#160 = SECURITY_CLASSIFICATION_LEVEL ( 'unclassified' ) ;
#161 = PERSON_AND_ORGANIZATION_ROLE ( 'classification_officer' ) ;
#162 = DATE_TIME_ROLE ( 'classification_date' ) ;
#163 = APPROVAL_STATUS ( 'not_yet_approved' ) ;
#164 = APPROVAL_ROLE ( '' ) ;
#165 = ADVANCED_FACE ( 'NONE', ( #292 ), #34, .F. ) ;
#166 = ADVANCED_FACE ( 'NONE', ( #294, #290 ), #65, .F. ) ;
#167 = ADVANCED_FACE ( 'NONE', ( #288 ), #55, .F. ) ;
#168 = EDGE_CURVE ( 'NONE', #209, #206, #285, .T. ) ;
#169 = EDGE_CURVE ( 'NONE', #212, #210, #287, .T. ) ;
#170 = EDGE_CURVE ( 'NONE', #214, #217, #283, .T. ) ;
#171 = EDGE_CURVE ( 'NONE', #214, #215, #282, .T. ) ;
#172 = ADVANCED_FACE ( 'NONE', ( #280 ), #286, .F. ) ;
#173 = ADVANCED_FACE ( 'NONE', ( #281 ), #35, .F. ) ;
#174 = EDGE_CURVE ( 'NONE', #209, #208, #279, .T. ) ;
#175 = EDGE_CURVE ( 'NONE', #207, #217, #295, .T. ) ;
#176 = EDGE_CURVE ( 'NONE', #206, #214, #296, .T. ) ;
#177 = EDGE_CURVE ( 'NONE', #220, #221, #7, .T. ) ;
#178 = EDGE_CURVE ( 'NONE', #210, #209, #297, .T. ) ;
#179 = ADVANCED_FACE ( 'NONE', ( #313 ), #72, .T. ) ;
#180 = ADVANCED_FACE ( 'NONE', ( #278 ), #312, .F. ) ;
#181 = ADVANCED_FACE ( 'NONE', ( #311 ), #79, .F. ) ;
#182 = ADVANCED_FACE ( 'NONE', ( #310 ), #83, .F. ) ;
#183 = ADVANCED_FACE ( 'NONE', ( #309, #308 ), #87, .F. ) ;
#184 = LOCAL_TIME ( 9, 12, 41.00000000000000000, #343 ) ;
#185 = EDGE_CURVE ( 'NONE', #213, #211, #307, .T. ) ;
#186 = EDGE_CURVE ( 'NONE', #219, #218, #9, .T. ) ;
#187 = EDGE_CURVE ( 'NONE', #210, #211, #306, .T. ) ;
#188 = EDGE_CURVE ( 'NONE', #221, #220, #21, .T. ) ;
#189 = EDGE_CURVE ( 'NONE', #208, #207, #305, .T. ) ;
#190 = EDGE_CURVE ( 'NONE', #219, #220, #304, .T. ) ;
#191 = EDGE_CURVE ( 'NONE', #215, #216, #303, .T. ) ;
#192 = EDGE_CURVE ( 'NONE', #211, #208, #302, .T. ) ;
#193 = EDGE_CURVE ( 'NONE', #206, #207, #301, .T. ) ;
#194 = EDGE_CURVE ( 'NONE', #217, #216, #300, .T. ) ;
#195 = EDGE_CURVE ( 'NONE', #215, #212, #299, .T. ) ;
#196 = EDGE_CURVE ( 'NONE', #212, #213, #298, .T. ) ;
#197 = EDGE_CURVE ( 'NONE', #216, #213, #314, .T. ) ;
#198 = EDGE_CURVE ( 'NONE', #218, #221, #315, .T. ) ;
#199 = EDGE_CURVE ( 'NONE', #218, #219, #31, .T. ) ;
#200 =( GEOMETRIC_REPRESENTATION_CONTEXT ( 3 ) GLOBAL_UNCERTAINTY_ASSIGNED_CONTEXT ( ( #347 ) ) GLOBAL_UNIT_ASSIGNED_CONTEXT ( ( #140, #141, #142 ) ) REPRESENTATION_CONTEXT ( 'NONE', 'WORKASPACE' ) );
#201 = LOCAL_TIME ( 9, 12, 41.00000000000000000, #338 ) ;
#202 = LOCAL_TIME ( 9, 12, 41.00000000000000000, #333 ) ;
#203 = LOCAL_TIME ( 9, 12, 41.00000000000000000, #326 ) ;
#204 = LOCAL_TIME ( 9, 12, 41.00000000000000000, #321 ) ;
#205 = ORIENTED_EDGE ( 'NONE', *, *, #197, .F. ) ;
#206 = VERTEX_POINT ( 'NONE', #124 ) ;
#207 = VERTEX_POINT ( 'NONE', #125 ) ;
#208 = VERTEX_POINT ( 'NONE', #126 ) ;
#209 = VERTEX_POINT ( 'NONE', #127 ) ;
#210 = VERTEX_POINT ( 'NONE', #128 ) ;
#211 = VERTEX_POINT ( 'NONE', #129 ) ;
#212 = VERTEX_POINT ( 'NONE', #130 ) ;
#213 = VERTEX_POINT ( 'NONE', #131 ) ;
#214 = VERTEX_POINT ( 'NONE', #132 ) ;
#215 = VERTEX_POINT ( 'NONE', #133 ) ;
#216 = VERTEX_POINT ( 'NONE', #134 ) ;
#217 = VERTEX_POINT ( 'NONE', #135 ) ;
#218 = VERTEX_POINT ( 'NONE', #136 ) ;
#219 = VERTEX_POINT ( 'NONE', #137 ) ;
#220 = VERTEX_POINT ( 'NONE', #138 ) ;
#221 = VERTEX_POINT ( 'NONE', #139 ) ;
#222 = EDGE_LOOP ( 'NONE', ( #246, #248 ) ) ;
#223 = EDGE_LOOP ( 'NONE', ( #245, #251, #247, #253 ) ) ;
#224 = EDGE_LOOP ( 'NONE', ( #254, #273, #264, #252, #270, #272 ) ) ;
#225 = EDGE_LOOP ( 'NONE', ( #261, #274, #269, #271, #275, #205 ) ) ;
#226 = EDGE_LOOP ( 'NONE', ( #289, #284, #291, #293 ) ) ;
#227 = CLOSED_SHELL ( 'NONE', ( #172, #167, #181, #166, #182, #173, #183, #179, #165, #180 ) ) ;
#228 = EDGE_LOOP ( 'NONE', ( #277, #265, #268, #276 ) ) ;
#229 = EDGE_LOOP ( 'NONE', ( #249, #259, #257, #260 ) ) ;
#230 = EDGE_LOOP ( 'NONE', ( #255, #242, #256, #244 ) ) ;
#231 = EDGE_LOOP ( 'NONE', ( #235, #236, #243, #250 ) ) ;
#232 = EDGE_LOOP ( 'NONE', ( #240, #237 ) ) ;
#233 = EDGE_LOOP ( 'NONE', ( #262, #266, #263, #267 ) ) ;
#234 = EDGE_LOOP ( 'NONE', ( #258, #238, #241, #239 ) ) ;
#235 = ORIENTED_EDGE ( 'NONE', *, *, #192, .T. ) ;
#236 = ORIENTED_EDGE ( 'NONE', *, *, #174, .F. ) ;
#237 = ORIENTED_EDGE ( 'NONE', *, *, #199, .T. ) ;
#238 = ORIENTED_EDGE ( 'NONE', *, *, #187, .F. ) ;
#239 = ORIENTED_EDGE ( 'NONE', *, *, #196, .T. ) ;
#240 = ORIENTED_EDGE ( 'NONE', *, *, #186, .T. ) ;
#241 = ORIENTED_EDGE ( 'NONE', *, *, #169, .F. ) ;
#242 = ORIENTED_EDGE ( 'NONE', *, *, #193, .F. ) ;
#243 = ORIENTED_EDGE ( 'NONE', *, *, #178, .F. ) ;
#244 = ORIENTED_EDGE ( 'NONE', *, *, #174, .T. ) ;
#245 = ORIENTED_EDGE ( 'NONE', *, *, #175, .T. ) ;
#246 = ORIENTED_EDGE ( 'NONE', *, *, #177, .F. ) ;
#247 = ORIENTED_EDGE ( 'NONE', *, *, #176, .F. ) ;
#248 = ORIENTED_EDGE ( 'NONE', *, *, #188, .F. ) ;
#249 = ORIENTED_EDGE ( 'NONE', *, *, #194, .T. ) ;
#250 = ORIENTED_EDGE ( 'NONE', *, *, #187, .T. ) ;
#251 = ORIENTED_EDGE ( 'NONE', *, *, #170, .F. ) ;
#252 = ORIENTED_EDGE ( 'NONE', *, *, #178, .T. ) ;
#253 = ORIENTED_EDGE ( 'NONE', *, *, #193, .T. ) ;
#254 = ORIENTED_EDGE ( 'NONE', *, *, #171, .T. ) ;
#255 = ORIENTED_EDGE ( 'NONE', *, *, #189, .T. ) ;
#256 = ORIENTED_EDGE ( 'NONE', *, *, #168, .F. ) ;
#257 = ORIENTED_EDGE ( 'NONE', *, *, #171, .F. ) ;
#258 = ORIENTED_EDGE ( 'NONE', *, *, #185, .T. ) ;
#259 = ORIENTED_EDGE ( 'NONE', *, *, #191, .F. ) ;
#260 = ORIENTED_EDGE ( 'NONE', *, *, #170, .T. ) ;
#261 = ORIENTED_EDGE ( 'NONE', *, *, #194, .F. ) ;
#262 = ORIENTED_EDGE ( 'NONE', *, *, #199, .F. ) ;
#263 = ORIENTED_EDGE ( 'NONE', *, *, #188, .T. ) ;
#264 = ORIENTED_EDGE ( 'NONE', *, *, #169, .T. ) ;
#265 = ORIENTED_EDGE ( 'NONE', *, *, #196, .F. ) ;
#266 = ORIENTED_EDGE ( 'NONE', *, *, #198, .T. ) ;
#267 = ORIENTED_EDGE ( 'NONE', *, *, #190, .F. ) ;
#268 = ORIENTED_EDGE ( 'NONE', *, *, #195, .F. ) ;
#269 = ORIENTED_EDGE ( 'NONE', *, *, #189, .F. ) ;
#270 = ORIENTED_EDGE ( 'NONE', *, *, #168, .T. ) ;
#271 = ORIENTED_EDGE ( 'NONE', *, *, #192, .F. ) ;
#272 = ORIENTED_EDGE ( 'NONE', *, *, #176, .T. ) ;
#273 = ORIENTED_EDGE ( 'NONE', *, *, #195, .T. ) ;
#274 = ORIENTED_EDGE ( 'NONE', *, *, #175, .F. ) ;
#275 = ORIENTED_EDGE ( 'NONE', *, *, #185, .F. ) ;
#276 = ORIENTED_EDGE ( 'NONE', *, *, #191, .T. ) ;
#277 = ORIENTED_EDGE ( 'NONE', *, *, #197, .T. ) ;
#278 = FACE_OUTER_BOUND ( 'NONE', #226, .T. ) ;
#279 = LINE ( 'NONE', #47, #5 ) ;
#280 = FACE_OUTER_BOUND ( 'NONE', #233, .T. ) ;
#281 = FACE_OUTER_BOUND ( 'NONE', #230, .T. ) ;
#282 = LINE ( 'NONE', #68, #24 ) ;
#283 = LINE ( 'NONE', #56, #27 ) ;
#284 = ORIENTED_EDGE ( 'NONE', *, *, #186, .F. ) ;
#285 = LINE ( 'NONE', #62, #29 ) ;
#286 = CYLINDRICAL_SURFACE ( 'NONE', #11, 3.399999999999993200 ) ;
#287 = LINE ( 'NONE', #60, #33 ) ;
#288 = FACE_OUTER_BOUND ( 'NONE', #229, .T. ) ;
#289 = ORIENTED_EDGE ( 'NONE', *, *, #198, .F. ) ;
#290 = FACE_OUTER_BOUND ( 'NONE', #234, .T. ) ;
#291 = ORIENTED_EDGE ( 'NONE', *, *, #190, .T. ) ;
#292 = FACE_OUTER_BOUND ( 'NONE', #225, .T. ) ;
#293 = ORIENTED_EDGE ( 'NONE', *, *, #177, .T. ) ;
#294 = FACE_BOUND ( 'NONE', #232, .T. ) ;
#295 = LINE ( 'NONE', #45, #8 ) ;
#296 = LINE ( 'NONE', #39, #23 ) ;
#297 = LINE ( 'NONE', #70, #28 ) ;
#298 = LINE ( 'NONE', #115, #358 ) ;
#299 = LINE ( 'NONE', #113, #362 ) ;
#300 = LINE ( 'NONE', #111, #2 ) ;
#301 = LINE ( 'NONE', #109, #18 ) ;
#302 = LINE ( 'NONE', #107, #22 ) ;
#303 = LINE ( 'NONE', #105, #16 ) ;
#304 = LINE ( 'NONE', #103, #6 ) ;
#305 = LINE ( 'NONE', #101, #13 ) ;
#306 = LINE ( 'NONE', #96, #1 ) ;
#307 = LINE ( 'NONE', #91, #20 ) ;
#308 = FACE_OUTER_BOUND ( 'NONE', #223, .T. ) ;
#309 = FACE_BOUND ( 'NONE', #222, .T. ) ;
#310 = FACE_OUTER_BOUND ( 'NONE', #231, .T. ) ;
#311 = FACE_OUTER_BOUND ( 'NONE', #228, .T. ) ;
#312 = CYLINDRICAL_SURFACE ( 'NONE', #15, 3.399999999999993200 ) ;
#313 = FACE_OUTER_BOUND ( 'NONE', #224, .T. ) ;
#314 = LINE ( 'NONE', #117, #363 ) ;
#315 = LINE ( 'NONE', #119, #359 ) ;
#316 = ORGANIZATION ( 'NON SPECIFICATO', 'NON SPECIFICATO', '' ) ;
#317 = SHAPE_DEFINITION_REPRESENTATION ( #377, #374 ) ;
#318 = APPROVAL_DATE_TIME ( #319, #366 ) ;
#319 = DATE_AND_TIME ( #320, #204 ) ;
#320 = CALENDAR_DATE ( 2013, 25, 1 ) ;
#321 = COORDINATED_UNIVERSAL_TIME_OFFSET ( 1, 0, .AHEAD. ) ;
#322 = APPROVAL_PERSON_ORGANIZATION ( #323, #366, #164 ) ;
#323 = PERSON_AND_ORGANIZATION ( #348, #316 ) ;
#324 = DATE_AND_TIME ( #325, #203 ) ;
#325 = CALENDAR_DATE ( 2013, 25, 1 ) ;
#326 = COORDINATED_UNIVERSAL_TIME_OFFSET ( 1, 0, .AHEAD. ) ;
#327 = PERSON_AND_ORGANIZATION ( #348, #316 ) ;
#328 = PERSON_AND_ORGANIZATION ( #348, #316 ) ;
#329 = PERSON_AND_ORGANIZATION ( #348, #316 ) ;
#330 = APPROVAL_DATE_TIME ( #331, #361 ) ;
#331 = DATE_AND_TIME ( #332, #202 ) ;
#332 = CALENDAR_DATE ( 2013, 25, 1 ) ;
#333 = COORDINATED_UNIVERSAL_TIME_OFFSET ( 1, 0, .AHEAD. ) ;
#334 = APPROVAL_PERSON_ORGANIZATION ( #335, #361, #157 ) ;
#335 = PERSON_AND_ORGANIZATION ( #348, #316 ) ;
#336 = DATE_AND_TIME ( #337, #201 ) ;
#337 = CALENDAR_DATE ( 2013, 25, 1 ) ;
#338 = COORDINATED_UNIVERSAL_TIME_OFFSET ( 1, 0, .AHEAD. ) ;
#339 = PERSON_AND_ORGANIZATION ( #348, #316 ) ;
#340 = APPROVAL_DATE_TIME ( #341, #352 ) ;
#341 = DATE_AND_TIME ( #342, #184 ) ;
#342 = CALENDAR_DATE ( 2013, 25, 1 ) ;
#343 = COORDINATED_UNIVERSAL_TIME_OFFSET ( 1, 0, .AHEAD. ) ;
#344 = APPROVAL_PERSON_ORGANIZATION ( #345, #352, #153 ) ;
#345 = PERSON_AND_ORGANIZATION ( #348, #316 ) ;
#346 = PERSON_AND_ORGANIZATION ( #348, #316 ) ;
#347 = UNCERTAINTY_MEASURE_WITH_UNIT (LENGTH_MEASURE( 1.000000000000000100E-005 ), #140, 'distance_accuracy_value', 'NONE');
#348 = PERSON ( 'NON SPECIFICATO', 'NON SPECIFICATO', 'NON SPECIFICATO', ('NON SPECIFICATO'), ('NON SPECIFICATO'), ('NON SPECIFICATO') ) ;
#349 = PRODUCT ( '084.302.011', '084.302.011', '', ( #148 ) ) ;
#350 = CC_DESIGN_PERSON_AND_ORGANIZATION_ASSIGNMENT ( #327, #161, ( #370 ) ) ;
#351 = CC_DESIGN_PERSON_AND_ORGANIZATION_ASSIGNMENT ( #329, #158, ( #373 ) ) ;
#352 = APPROVAL ( #152, 'NON SPECIFICATO' ) ;
#353 = CC_DESIGN_DATE_AND_TIME_ASSIGNMENT ( #324, #162, ( #370 ) ) ;
#354 = PRODUCT_DEFINITION ( 'NON CONOSCIUTO', '', #373, #376 ) ;
#355 = CC_DESIGN_PERSON_AND_ORGANIZATION_ASSIGNMENT ( #328, #159, ( #373 ) ) ;
#356 = CC_DESIGN_APPROVAL ( #352, ( #354 ) ) ;
#357 = CC_DESIGN_DATE_AND_TIME_ASSIGNMENT ( #336, #155, ( #354 ) ) ;
#358 = VECTOR ( 'NONE', #116, 1000.000000000000000 ) ;
#359 = VECTOR ( 'NONE', #120, 1000.000000000000000 ) ;
#360 = CC_DESIGN_SECURITY_CLASSIFICATION ( #370, ( #373 ) ) ;
#361 = APPROVAL ( #156, 'NON SPECIFICATO' ) ;
#362 = VECTOR ( 'NONE', #114, 1000.000000000000000 ) ;
#363 = VECTOR ( 'NONE', #118, 1000.000000000000000 ) ;
#364 = CC_DESIGN_PERSON_AND_ORGANIZATION_ASSIGNMENT ( #346, #149, ( #349 ) ) ;
#365 = CC_DESIGN_APPROVAL ( #361, ( #373 ) ) ;
#366 = APPROVAL ( #163, 'NON SPECIFICATO' ) ;
#367 = AXIS2_PLACEMENT_3D ( 'NONE', #121, #122, #123 ) ;
#368 = CC_DESIGN_PERSON_AND_ORGANIZATION_ASSIGNMENT ( #339, #154, ( #354 ) ) ;
#369 = CC_DESIGN_APPROVAL ( #366, ( #370 ) ) ;
#370 = SECURITY_CLASSIFICATION ( '', '', #160 ) ;
#371 = AXIS2_PLACEMENT_3D ( 'NONE', #143, #144, #145 ) ;
#372 = PRODUCT_RELATED_PRODUCT_CATEGORY ( 'detail', '', ( #349 ) ) ;
#373 = PRODUCT_DEFINITION_FORMATION_WITH_SPECIFIED_SOURCE ( 'TUTTO', '', #349, .NOT_KNOWN. ) ;
#374 = ADVANCED_BREP_SHAPE_REPRESENTATION ( '084.302.011', ( #375, #371 ), #200 ) ;
#375 = MANIFOLD_SOLID_BREP ( 'M8x1.25 Foro filettato profondo1', #227 ) ;
#376 = DESIGN_CONTEXT ( 'detailed design', #150, 'design' ) ;
#377 = PRODUCT_DEFINITION_SHAPE ( 'NONE', 'NONE',  #354 ) ;
ENDSEC;
END-ISO-10303-21;
