ISO-10303-21;
HEADER;
FILE_DESCRIPTION (( 'STEP AP203' ),
    '1' );
FILE_NAME ('084.302.010.STEP',
    '2013-01-25T08:12:02',
    ( 'Alusic' ),
    ( 'Alusic' ),
    'SwSTEP 2.0',
    'SolidWorks 2011',
    '' );
FILE_SCHEMA (( 'CONFIG_CONTROL_DESIGN' ));
ENDSEC;

DATA;
#1 = DIRECTION ( 'NONE',  ( 0.0000000000000000000, 0.0000000000000000000, 1.000000000000000000 ) ) ;
#2 = DIRECTION ( 'NONE',  ( -0.0000000000000000000, 1.000000000000000000, -0.0000000000000000000 ) ) ;
#3 = CARTESIAN_POINT ( 'NONE',  ( -4.499999999999999100, -6.000000000000000000, 10.00000000000000000 ) ) ;
#4 = DIRECTION ( 'NONE',  ( -9.637352644315595200E-017, 1.000000000000000000, 0.0000000000000000000 ) ) ;
#5 = DIRECTION ( 'NONE',  ( -1.000000000000000000, -9.637352644315595200E-017, 0.0000000000000000000 ) ) ;
#6 = CARTESIAN_POINT ( 'NONE',  ( 0.0000000000000000000, 0.0000000000000000000, 0.0000000000000000000 ) ) ;
#7 = PLANE ( 'NONE',  #355 ) ;
#8 = DIRECTION ( 'NONE',  ( 4.336808689941994100E-016, -1.000000000000000000, 0.0000000000000000000 ) ) ;
#9 = DIRECTION ( 'NONE',  ( -1.000000000000000000, -4.336808689941994100E-016, 0.0000000000000000000 ) ) ;
#10 = CARTESIAN_POINT ( 'NONE',  ( 6.500000000000000000, 1.591988259969090200E-015, 10.00000000000000000 ) ) ;
#11 = PLANE ( 'NONE',  #321 ) ;
#12 = DIRECTION ( 'NONE',  ( -0.7071067811865513500, -0.7071067811865436900, 0.0000000000000000000 ) ) ;
#13 = DIRECTION ( 'NONE',  ( -0.7071067811865436900, 0.7071067811865513500, 0.0000000000000000000 ) ) ;
#14 = CARTESIAN_POINT ( 'NONE',  ( 6.500000000000001800, -4.000000000000020400, 10.00000000000000000 ) ) ;
#15 = PLANE ( 'NONE',  #339 ) ;
#16 = DIRECTION ( 'NONE',  ( -1.000000000000000000, -1.224606353822377300E-016, -0.0000000000000000000 ) ) ;
#17 = CARTESIAN_POINT ( 'NONE',  ( -6.500000000000000000, 0.0000000000000000000, -10.00000000000000000 ) ) ;
#18 = DIRECTION ( 'NONE',  ( 0.0000000000000000000, 0.0000000000000000000, 1.000000000000000000 ) ) ;
#19 = DIRECTION ( 'NONE',  ( -0.0000000000000000000, 1.000000000000000000, -0.0000000000000000000 ) ) ;
#20 = CARTESIAN_POINT ( 'NONE',  ( 0.0000000000000000000, 1.138883909054807900E-015, 0.0000000000000000000 ) ) ;
#21 = DIRECTION ( 'NONE',  ( -4.336808689941994100E-016, 1.000000000000000000, -0.0000000000000000000 ) ) ;
#22 = CARTESIAN_POINT ( 'NONE',  ( 6.500000000000000000, 1.591988259969090200E-015, 10.00000000000000000 ) ) ;
#23 = DIRECTION ( 'NONE',  ( -4.336808689941994100E-016, 1.000000000000000000, -0.0000000000000000000 ) ) ;
#24 = CARTESIAN_POINT ( 'NONE',  ( 6.500000000000000000, 1.591988259969090200E-015, -10.00000000000000000 ) ) ;
#25 = DIRECTION ( 'NONE',  ( -0.0000000000000000000, -0.0000000000000000000, -1.000000000000000000 ) ) ;
#26 = CARTESIAN_POINT ( 'NONE',  ( 6.500000000000000000, 1.591988259969090200E-015, 10.00000000000000000 ) ) ;
#27 = DIRECTION ( 'NONE',  ( 0.7071067811865513500, 0.7071067811865436900, -0.0000000000000000000 ) ) ;
#28 = CARTESIAN_POINT ( 'NONE',  ( 6.500000000000001800, -4.000000000000020400, 10.00000000000000000 ) ) ;
#29 = DIRECTION ( 'NONE',  ( 0.0000000000000000000, 0.0000000000000000000, 1.000000000000000000 ) ) ;
#30 = DIRECTION ( 'NONE',  ( -0.0000000000000000000, 1.000000000000000000, -0.0000000000000000000 ) ) ;
#31 = CARTESIAN_POINT ( 'NONE',  ( 0.0000000000000000000, -6.000000000000000900, 0.0000000000000000000 ) ) ;
#32 = DIRECTION ( 'NONE',  ( 1.000000000000000000, 9.637352644315595200E-017, 0.0000000000000000000 ) ) ;
#33 = CARTESIAN_POINT ( 'NONE',  ( -4.499999999999999100, -6.000000000000000000, -10.00000000000000000 ) ) ;
#34 = DIRECTION ( 'NONE',  ( 0.7071067811865513500, 0.7071067811865436900, -0.0000000000000000000 ) ) ;
#35 = CARTESIAN_POINT ( 'NONE',  ( 6.500000000000001800, -4.000000000000020400, -10.00000000000000000 ) ) ;
#36 = PLANE ( 'NONE',  #368 ) ;
#37 = CARTESIAN_POINT ( 'NONE',  ( -6.500000000000000000, 0.0000000000000000000, 10.00000000000000000 ) ) ;
#38 = DIRECTION ( 'NONE',  ( 1.000000000000000000, 0.0000000000000000000, -0.0000000000000000000 ) ) ;
#39 = DIRECTION ( 'NONE',  ( -0.0000000000000000000, 0.0000000000000000000, -1.000000000000000000 ) ) ;
#40 = PLANE ( 'NONE',  #328 ) ;
#41 = CARTESIAN_POINT ( 'NONE',  ( -6.500000000000000000, -6.000000000000000000, -10.00000000000000000 ) ) ;
#42 = DIRECTION ( 'NONE',  ( -0.0000000000000000000, 0.0000000000000000000, 1.000000000000000000 ) ) ;
#43 = DIRECTION ( 'NONE',  ( 1.000000000000000000, 0.0000000000000000000, 0.0000000000000000000 ) ) ;
#44 = PLANE ( 'NONE',  #335 ) ;
#45 = CARTESIAN_POINT ( 'NONE',  ( -6.500000000000000000, -6.000000000000000000, 10.00000000000000000 ) ) ;
#46 = DIRECTION ( 'NONE',  ( -0.0000000000000000000, 0.0000000000000000000, 1.000000000000000000 ) ) ;
#47 = DIRECTION ( 'NONE',  ( 1.000000000000000000, 0.0000000000000000000, 0.0000000000000000000 ) ) ;
#48 = CARTESIAN_POINT ( 'NONE',  ( 0.0000000000000000000, 0.0000000000000000000, 0.0000000000000000000 ) ) ;
#49 = DIRECTION ( 'NONE',  ( -0.0000000000000000000, 1.000000000000000000, -0.0000000000000000000 ) ) ;
#50 = DIRECTION ( 'NONE',  ( 0.0000000000000000000, 0.0000000000000000000, 1.000000000000000000 ) ) ;
#51 = PLANE ( 'NONE',  #347 ) ;
#52 = CARTESIAN_POINT ( 'NONE',  ( -6.500000000000000000, 0.0000000000000000000, 10.00000000000000000 ) ) ;
#53 = DIRECTION ( 'NONE',  ( 1.224606353822377300E-016, -1.000000000000000000, 0.0000000000000000000 ) ) ;
#54 = DIRECTION ( 'NONE',  ( 1.000000000000000000, 1.224606353822377300E-016, 0.0000000000000000000 ) ) ;
#55 = CARTESIAN_POINT ( 'NONE',  ( -6.500000000000000000, 0.0000000000000000000, 10.00000000000000000 ) ) ;
#56 = DIRECTION ( 'NONE',  ( -1.000000000000000000, -1.224606353822377300E-016, -0.0000000000000000000 ) ) ;
#57 = PLANE ( 'NONE',  #345 ) ;
#58 = CARTESIAN_POINT ( 'NONE',  ( -6.500000000000000000, -4.000000000000022200, 10.00000000000000000 ) ) ;
#59 = DIRECTION ( 'NONE',  ( 0.7071067811865436900, 0.7071067811865514600, -0.0000000000000000000 ) ) ;
#60 = DIRECTION ( 'NONE',  ( -0.7071067811865513500, 0.7071067811865435800, 0.0000000000000000000 ) ) ;
#61 = CARTESIAN_POINT ( 'NONE',  ( 4.500000000000000900, -5.999999999999999100, 10.00000000000000000 ) ) ;
#62 = DIRECTION ( 'NONE',  ( -0.0000000000000000000, -0.0000000000000000000, -1.000000000000000000 ) ) ;
#63 = CARTESIAN_POINT ( 'NONE',  ( 6.500000000000001800, -4.000000000000020400, 10.00000000000000000 ) ) ;
#64 = DIRECTION ( 'NONE',  ( -0.0000000000000000000, -0.0000000000000000000, -1.000000000000000000 ) ) ;
#65 = CARTESIAN_POINT ( 'NONE',  ( -6.500000000000000000, -4.000000000000022200, 10.00000000000000000 ) ) ;
#66 = DIRECTION ( 'NONE',  ( -0.0000000000000000000, -0.0000000000000000000, -1.000000000000000000 ) ) ;
#67 = CARTESIAN_POINT ( 'NONE',  ( -4.499999999999999100, -6.000000000000000000, 10.00000000000000000 ) ) ;
#68 = DIRECTION ( 'NONE',  ( 1.000000000000000000, 9.637352644315595200E-017, 0.0000000000000000000 ) ) ;
#69 = CARTESIAN_POINT ( 'NONE',  ( 0.0000000000000000000, 0.0000000000000000000, 3.399999999999993200 ) ) ;
#70 = DIRECTION ( 'NONE',  ( -0.0000000000000000000, 1.000000000000000000, -0.0000000000000000000 ) ) ;
#71 = CARTESIAN_POINT ( 'NONE',  ( 0.0000000000000000000, 1.138883909054807900E-015, 0.0000000000000000000 ) ) ;
#72 = DIRECTION ( 'NONE',  ( -0.0000000000000000000, 1.000000000000000000, -0.0000000000000000000 ) ) ;
#73 = DIRECTION ( 'NONE',  ( 0.0000000000000000000, 0.0000000000000000000, 1.000000000000000000 ) ) ;
#74 = CARTESIAN_POINT ( 'NONE',  ( -6.500000000000000000, 0.0000000000000000000, -10.00000000000000000 ) ) ;
#75 = DIRECTION ( 'NONE',  ( 0.0000000000000000000, -1.000000000000000000, 0.0000000000000000000 ) ) ;
#76 = CARTESIAN_POINT ( 'NONE',  ( -6.500000000000000000, -4.000000000000022200, 10.00000000000000000 ) ) ;
#77 = DIRECTION ( 'NONE',  ( 0.7071067811865514600, -0.7071067811865435800, 0.0000000000000000000 ) ) ;
#78 = CARTESIAN_POINT ( 'NONE',  ( -6.500000000000000000, 0.0000000000000000000, 10.00000000000000000 ) ) ;
#79 = DIRECTION ( 'NONE',  ( 0.0000000000000000000, -1.000000000000000000, 0.0000000000000000000 ) ) ;
#80 = CARTESIAN_POINT ( 'NONE',  ( -6.500000000000000000, 0.0000000000000000000, 10.00000000000000000 ) ) ;
#81 = DIRECTION ( 'NONE',  ( -0.0000000000000000000, -0.0000000000000000000, -1.000000000000000000 ) ) ;
#82 = CARTESIAN_POINT ( 'NONE',  ( -4.499999999999999100, -6.000000000000000000, 10.00000000000000000 ) ) ;
#83 = DIRECTION ( 'NONE',  ( -0.0000000000000000000, -0.0000000000000000000, -1.000000000000000000 ) ) ;
#84 = CARTESIAN_POINT ( 'NONE',  ( -6.500000000000000000, -4.000000000000022200, -10.00000000000000000 ) ) ;
#85 = DIRECTION ( 'NONE',  ( 0.7071067811865514600, -0.7071067811865435800, 0.0000000000000000000 ) ) ;
#86 = CARTESIAN_POINT ( 'NONE',  ( 4.163799117100992700E-016, 0.0000000000000000000, -3.399999999999993200 ) ) ;
#87 = DIRECTION ( 'NONE',  ( -0.0000000000000000000, 1.000000000000000000, -0.0000000000000000000 ) ) ;
#88 = CARTESIAN_POINT ( 'NONE',  ( 0.0000000000000000000, -6.000000000000000900, 0.0000000000000000000 ) ) ;
#89 = DIRECTION ( 'NONE',  ( -0.0000000000000000000, 1.000000000000000000, -0.0000000000000000000 ) ) ;
#90 = DIRECTION ( 'NONE',  ( 0.0000000000000000000, 0.0000000000000000000, 1.000000000000000000 ) ) ;
#91 = CARTESIAN_POINT ( 'NONE',  ( 4.163799117100989200E-016, 1.138883909054807900E-015, -3.399999999999987900 ) ) ;
#92 = CARTESIAN_POINT ( 'NONE',  ( 0.0000000000000000000, 1.138883909054807900E-015, 3.399999999999987900 ) ) ;
#93 = CARTESIAN_POINT ( 'NONE',  ( 0.0000000000000000000, -6.000000000000000900, 3.399999999999998600 ) ) ;
#94 = CARTESIAN_POINT ( 'NONE',  ( 4.163799117100998600E-016, -6.000000000000000900, -3.399999999999998600 ) ) ;
#95 = CARTESIAN_POINT ( 'NONE',  ( -6.500000000000000000, 0.0000000000000000000, -10.00000000000000000 ) ) ;
#96 = CARTESIAN_POINT ( 'NONE',  ( -6.500000000000000000, -4.000000000000022200, -10.00000000000000000 ) ) ;
#97 = CARTESIAN_POINT ( 'NONE',  ( -6.500000000000000000, -4.000000000000022200, 10.00000000000000000 ) ) ;
#98 = CARTESIAN_POINT ( 'NONE',  ( -6.500000000000000000, 0.0000000000000000000, 10.00000000000000000 ) ) ;
#99 = CARTESIAN_POINT ( 'NONE',  ( -4.499999999999999100, -6.000000000000000000, -10.00000000000000000 ) ) ;
#100 = CARTESIAN_POINT ( 'NONE',  ( -4.499999999999999100, -6.000000000000000000, 10.00000000000000000 ) ) ;
#101 = CARTESIAN_POINT ( 'NONE',  ( 4.500000000000000900, -5.999999999999999100, -10.00000000000000000 ) ) ;
#102 = CARTESIAN_POINT ( 'NONE',  ( 4.500000000000000900, -5.999999999999999100, 10.00000000000000000 ) ) ;
#103 = CARTESIAN_POINT ( 'NONE',  ( 6.500000000000001800, -4.000000000000020400, -10.00000000000000000 ) ) ;
#104 = CARTESIAN_POINT ( 'NONE',  ( 6.500000000000001800, -4.000000000000020400, 10.00000000000000000 ) ) ;
#105 = CARTESIAN_POINT ( 'NONE',  ( 6.500000000000000000, 1.591988259969090200E-015, -10.00000000000000000 ) ) ;
#106 = CARTESIAN_POINT ( 'NONE',  ( 6.500000000000000000, 1.591988259969090200E-015, 10.00000000000000000 ) ) ;
#107 =( LENGTH_UNIT ( ) NAMED_UNIT ( * ) SI_UNIT ( .MILLI., .METRE. ) );
#108 =( NAMED_UNIT ( * ) PLANE_ANGLE_UNIT ( ) SI_UNIT ( $, .RADIAN. ) );
#109 =( NAMED_UNIT ( * ) SI_UNIT ( $, .STERADIAN. ) SOLID_ANGLE_UNIT ( ) );
#110 = CARTESIAN_POINT ( 'NONE',  ( 0.0000000000000000000, 0.0000000000000000000, 0.0000000000000000000 ) ) ;
#111 = DIRECTION ( 'NONE',  ( 0.0000000000000000000, 0.0000000000000000000, 1.000000000000000000 ) ) ;
#112 = DIRECTION ( 'NONE',  ( 1.000000000000000000, 0.0000000000000000000, 0.0000000000000000000 ) ) ;
#113 = APPLICATION_CONTEXT ( 'configuration controlled 3d designs of mechanical parts and assemblies' ) ;
#114 = APPLICATION_PROTOCOL_DEFINITION ( 'international standard', 'config_control_design', 1994, #113 ) ;
#115 = MECHANICAL_CONTEXT ( 'NONE', #113, 'mechanical' ) ;
#116 = PERSON_AND_ORGANIZATION_ROLE ( 'design_owner' ) ;
#117 = APPLICATION_CONTEXT ( 'configuration controlled 3d designs of mechanical parts and assemblies' ) ;
#118 = APPLICATION_PROTOCOL_DEFINITION ( 'international standard', 'config_control_design', 1994, #117 ) ;
#119 = APPROVAL_STATUS ( 'not_yet_approved' ) ;
#120 = APPROVAL_ROLE ( '' ) ;
#121 = PERSON_AND_ORGANIZATION_ROLE ( 'creator' ) ;
#122 = DATE_TIME_ROLE ( 'creation_date' ) ;
#123 = APPROVAL_STATUS ( 'not_yet_approved' ) ;
#124 = APPROVAL_ROLE ( '' ) ;
#125 = PERSON_AND_ORGANIZATION_ROLE ( 'creator' ) ;
#126 = PERSON_AND_ORGANIZATION_ROLE ( 'design_supplier' ) ;
#127 = SECURITY_CLASSIFICATION_LEVEL ( 'unclassified' ) ;
#128 = PERSON_AND_ORGANIZATION_ROLE ( 'classification_officer' ) ;
#129 = DATE_TIME_ROLE ( 'classification_date' ) ;
#130 = APPROVAL_STATUS ( 'not_yet_approved' ) ;
#131 = APPROVAL_ROLE ( '' ) ;
#132 = EDGE_CURVE ( 'NONE', #255, #257, #180, .T. ) ;
#133 = EDGE_CURVE ( 'NONE', #253, #255, #176, .T. ) ;
#134 = EDGE_CURVE ( 'NONE', #247, #248, #356, .T. ) ;
#135 = EDGE_CURVE ( 'NONE', #256, #258, #183, .T. ) ;
#136 = EDGE_CURVE ( 'NONE', #260, #259, #184, .T. ) ;
#137 = EDGE_CURVE ( 'NONE', #257, #259, #172, .T. ) ;
#138 = EDGE_CURVE ( 'NONE', #258, #260, #188, .T. ) ;
#139 = EDGE_CURVE ( 'NONE', #246, #245, #322, .T. ) ;
#140 = EDGE_CURVE ( 'NONE', #259, #249, #175, .T. ) ;
#141 = ADVANCED_FACE ( 'NONE', ( #186 ), #15, .F. ) ;
#142 = ADVANCED_FACE ( 'NONE', ( #178 ), #11, .F. ) ;
#143 = ADVANCED_FACE ( 'NONE', ( #177, #173 ), #7, .F. ) ;
#144 = ADVANCED_FACE ( 'NONE', ( #261 ), #185, .F. ) ;
#145 = ADVANCED_FACE ( 'NONE', ( #262 ), #36, .F. ) ;
#146 = ADVANCED_FACE ( 'NONE', ( #263 ), #40, .F. ) ;
#147 = ADVANCED_FACE ( 'NONE', ( #264 ), #44, .T. ) ;
#148 = ADVANCED_FACE ( 'NONE', ( #265 ), #266, .F. ) ;
#149 = ADVANCED_FACE ( 'NONE', ( #267, #268 ), #51, .F. ) ;
#150 = EDGE_CURVE ( 'NONE', #260, #252, #269, .T. ) ;
#151 = LOCAL_TIME ( 9, 12, 2.000000000000000000, #288 ) ;
#152 = ADVANCED_FACE ( 'NONE', ( #271 ), #57, .F. ) ;
#153 =( GEOMETRIC_REPRESENTATION_CONTEXT ( 3 ) GLOBAL_UNCERTAINTY_ASSIGNED_CONTEXT ( ( #314 ) ) GLOBAL_UNIT_ASSIGNED_CONTEXT ( ( #107, #108, #109 ) ) REPRESENTATION_CONTEXT ( 'NONE', 'WORKASPACE' ) );
#154 = EDGE_CURVE ( 'NONE', #256, #255, #270, .T. ) ;
#155 = EDGE_CURVE ( 'NONE', #258, #257, #272, .T. ) ;
#156 = EDGE_CURVE ( 'NONE', #251, #250, #273, .T. ) ;
#157 = EDGE_CURVE ( 'NONE', #254, #256, #274, .T. ) ;
#158 = EDGE_CURVE ( 'NONE', #247, #246, #275, .T. ) ;
#159 = EDGE_CURVE ( 'NONE', #245, #246, #361, .T. ) ;
#160 = EDGE_CURVE ( 'NONE', #249, #250, #276, .T. ) ;
#161 = EDGE_CURVE ( 'NONE', #251, #254, #277, .T. ) ;
#162 = EDGE_CURVE ( 'NONE', #252, #251, #278, .T. ) ;
#163 = EDGE_CURVE ( 'NONE', #252, #249, #279, .T. ) ;
#164 = EDGE_CURVE ( 'NONE', #254, #253, #280, .T. ) ;
#165 = EDGE_CURVE ( 'NONE', #250, #253, #281, .T. ) ;
#166 = EDGE_CURVE ( 'NONE', #248, #245, #282, .T. ) ;
#167 = EDGE_CURVE ( 'NONE', #248, #247, #369, .T. ) ;
#168 = LOCAL_TIME ( 9, 12, 2.000000000000000000, #298 ) ;
#169 = LOCAL_TIME ( 9, 12, 2.000000000000000000, #293 ) ;
#170 = LOCAL_TIME ( 9, 12, 2.000000000000000000, #305 ) ;
#171 = LOCAL_TIME ( 9, 12, 2.000000000000000000, #310 ) ;
#172 = LINE ( 'NONE', #24, #330 ) ;
#173 = FACE_OUTER_BOUND ( 'NONE', #236, .T. ) ;
#174 = ORIENTED_EDGE ( 'NONE', *, *, #159, .T. ) ;
#175 = LINE ( 'NONE', #17, #326 ) ;
#176 = LINE ( 'NONE', #33, #374 ) ;
#177 = FACE_BOUND ( 'NONE', #235, .T. ) ;
#178 = FACE_OUTER_BOUND ( 'NONE', #238, .T. ) ;
#179 = ORIENTED_EDGE ( 'NONE', *, *, #158, .F. ) ;
#180 = LINE ( 'NONE', #35, #370 ) ;
#181 = ORIENTED_EDGE ( 'NONE', *, *, #167, .F. ) ;
#182 = ORIENTED_EDGE ( 'NONE', *, *, #166, .T. ) ;
#183 = LINE ( 'NONE', #28, #357 ) ;
#184 = LINE ( 'NONE', #26, #363 ) ;
#185 = CYLINDRICAL_SURFACE ( 'NONE', #334, 3.399999999999993200 ) ;
#186 = FACE_OUTER_BOUND ( 'NONE', #237, .T. ) ;
#187 = ORIENTED_EDGE ( 'NONE', *, *, #161, .F. ) ;
#188 = LINE ( 'NONE', #22, #358 ) ;
#189 = ORIENTED_EDGE ( 'NONE', *, *, #165, .T. ) ;
#190 = ORIENTED_EDGE ( 'NONE', *, *, #164, .F. ) ;
#191 = ORIENTED_EDGE ( 'NONE', *, *, #156, .T. ) ;
#192 = ORIENTED_EDGE ( 'NONE', *, *, #133, .T. ) ;
#193 = ORIENTED_EDGE ( 'NONE', *, *, #163, .T. ) ;
#194 = ORIENTED_EDGE ( 'NONE', *, *, #156, .F. ) ;
#195 = ORIENTED_EDGE ( 'NONE', *, *, #162, .F. ) ;
#196 = ORIENTED_EDGE ( 'NONE', *, *, #160, .T. ) ;
#197 = ORIENTED_EDGE ( 'NONE', *, *, #157, .F. ) ;
#198 = ORIENTED_EDGE ( 'NONE', *, *, #134, .T. ) ;
#199 = ORIENTED_EDGE ( 'NONE', *, *, #164, .T. ) ;
#200 = ORIENTED_EDGE ( 'NONE', *, *, #154, .F. ) ;
#201 = ORIENTED_EDGE ( 'NONE', *, *, #167, .T. ) ;
#202 = ORIENTED_EDGE ( 'NONE', *, *, #132, .T. ) ;
#203 = ORIENTED_EDGE ( 'NONE', *, *, #135, .F. ) ;
#204 = ORIENTED_EDGE ( 'NONE', *, *, #155, .F. ) ;
#205 = ORIENTED_EDGE ( 'NONE', *, *, #154, .T. ) ;
#206 = ORIENTED_EDGE ( 'NONE', *, *, #137, .T. ) ;
#207 = ORIENTED_EDGE ( 'NONE', *, *, #138, .F. ) ;
#208 = ORIENTED_EDGE ( 'NONE', *, *, #136, .F. ) ;
#209 = ORIENTED_EDGE ( 'NONE', *, *, #155, .T. ) ;
#210 = ORIENTED_EDGE ( 'NONE', *, *, #140, .T. ) ;
#211 = ORIENTED_EDGE ( 'NONE', *, *, #139, .F. ) ;
#212 = ORIENTED_EDGE ( 'NONE', *, *, #150, .F. ) ;
#213 = ORIENTED_EDGE ( 'NONE', *, *, #159, .F. ) ;
#214 = ORIENTED_EDGE ( 'NONE', *, *, #163, .F. ) ;
#215 = ORIENTED_EDGE ( 'NONE', *, *, #135, .T. ) ;
#216 = ORIENTED_EDGE ( 'NONE', *, *, #136, .T. ) ;
#217 = ORIENTED_EDGE ( 'NONE', *, *, #162, .T. ) ;
#218 = ORIENTED_EDGE ( 'NONE', *, *, #161, .T. ) ;
#219 = ORIENTED_EDGE ( 'NONE', *, *, #157, .T. ) ;
#220 = ORIENTED_EDGE ( 'NONE', *, *, #138, .T. ) ;
#221 = ORIENTED_EDGE ( 'NONE', *, *, #150, .T. ) ;
#222 = ORIENTED_EDGE ( 'NONE', *, *, #132, .F. ) ;
#223 = ORIENTED_EDGE ( 'NONE', *, *, #160, .F. ) ;
#224 = ORIENTED_EDGE ( 'NONE', *, *, #140, .F. ) ;
#225 = ORIENTED_EDGE ( 'NONE', *, *, #137, .F. ) ;
#226 = ORIENTED_EDGE ( 'NONE', *, *, #133, .F. ) ;
#227 = ORIENTED_EDGE ( 'NONE', *, *, #165, .F. ) ;
#228 = ORIENTED_EDGE ( 'NONE', *, *, #139, .T. ) ;
#229 = ORIENTED_EDGE ( 'NONE', *, *, #166, .F. ) ;
#230 = ORIENTED_EDGE ( 'NONE', *, *, #134, .F. ) ;
#231 = ORIENTED_EDGE ( 'NONE', *, *, #158, .T. ) ;
#232 = EDGE_LOOP ( 'NONE', ( #196, #194, #195, #193 ) ) ;
#233 = EDGE_LOOP ( 'NONE', ( #181, #182, #174, #179 ) ) ;
#234 = EDGE_LOOP ( 'NONE', ( #189, #190, #187, #191 ) ) ;
#235 = EDGE_LOOP ( 'NONE', ( #198, #201 ) ) ;
#236 = EDGE_LOOP ( 'NONE', ( #192, #200, #197, #199 ) ) ;
#237 = EDGE_LOOP ( 'NONE', ( #202, #204, #203, #205 ) ) ;
#238 = EDGE_LOOP ( 'NONE', ( #206, #208, #207, #209 ) ) ;
#239 = EDGE_LOOP ( 'NONE', ( #211, #213 ) ) ;
#240 = EDGE_LOOP ( 'NONE', ( #210, #214, #212, #216 ) ) ;
#241 = EDGE_LOOP ( 'NONE', ( #217, #218, #219, #215, #220, #221 ) ) ;
#242 = EDGE_LOOP ( 'NONE', ( #223, #224, #225, #222, #226, #227 ) ) ;
#243 = EDGE_LOOP ( 'NONE', ( #229, #230, #231, #228 ) ) ;
#244 = CLOSED_SHELL ( 'NONE', ( #144, #145, #152, #143, #141, #142, #149, #147, #146, #148 ) ) ;
#245 = VERTEX_POINT ( 'NONE', #91 ) ;
#246 = VERTEX_POINT ( 'NONE', #92 ) ;
#247 = VERTEX_POINT ( 'NONE', #93 ) ;
#248 = VERTEX_POINT ( 'NONE', #94 ) ;
#249 = VERTEX_POINT ( 'NONE', #95 ) ;
#250 = VERTEX_POINT ( 'NONE', #96 ) ;
#251 = VERTEX_POINT ( 'NONE', #97 ) ;
#252 = VERTEX_POINT ( 'NONE', #98 ) ;
#253 = VERTEX_POINT ( 'NONE', #99 ) ;
#254 = VERTEX_POINT ( 'NONE', #100 ) ;
#255 = VERTEX_POINT ( 'NONE', #101 ) ;
#256 = VERTEX_POINT ( 'NONE', #102 ) ;
#257 = VERTEX_POINT ( 'NONE', #103 ) ;
#258 = VERTEX_POINT ( 'NONE', #104 ) ;
#259 = VERTEX_POINT ( 'NONE', #105 ) ;
#260 = VERTEX_POINT ( 'NONE', #106 ) ;
#261 = FACE_OUTER_BOUND ( 'NONE', #233, .T. ) ;
#262 = FACE_OUTER_BOUND ( 'NONE', #232, .T. ) ;
#263 = FACE_OUTER_BOUND ( 'NONE', #242, .T. ) ;
#264 = FACE_OUTER_BOUND ( 'NONE', #241, .T. ) ;
#265 = FACE_OUTER_BOUND ( 'NONE', #243, .T. ) ;
#266 = CYLINDRICAL_SURFACE ( 'NONE', #343, 3.399999999999993200 ) ;
#267 = FACE_BOUND ( 'NONE', #239, .T. ) ;
#268 = FACE_OUTER_BOUND ( 'NONE', #240, .T. ) ;
#269 = LINE ( 'NONE', #55, #367 ) ;
#270 = LINE ( 'NONE', #61, #371 ) ;
#271 = FACE_OUTER_BOUND ( 'NONE', #234, .T. ) ;
#272 = LINE ( 'NONE', #63, #324 ) ;
#273 = LINE ( 'NONE', #65, #365 ) ;
#274 = LINE ( 'NONE', #67, #325 ) ;
#275 = LINE ( 'NONE', #69, #340 ) ;
#276 = LINE ( 'NONE', #74, #327 ) ;
#277 = LINE ( 'NONE', #76, #360 ) ;
#278 = LINE ( 'NONE', #78, #348 ) ;
#279 = LINE ( 'NONE', #80, #372 ) ;
#280 = LINE ( 'NONE', #82, #354 ) ;
#281 = LINE ( 'NONE', #84, #350 ) ;
#282 = LINE ( 'NONE', #86, #364 ) ;
#283 = SHAPE_DEFINITION_REPRESENTATION ( #377, #318 ) ;
#284 = ORGANIZATION ( 'NON SPECIFICATO', 'NON SPECIFICATO', '' ) ;
#285 = PERSON_AND_ORGANIZATION ( #316, #284 ) ;
#286 = PERSON_AND_ORGANIZATION ( #316, #284 ) ;
#287 = APPROVAL_PERSON_ORGANIZATION ( #286, #331, #120 ) ;
#288 = COORDINATED_UNIVERSAL_TIME_OFFSET ( 1, 0, .AHEAD. ) ;
#289 = CALENDAR_DATE ( 2013, 25, 1 ) ;
#290 = DATE_AND_TIME ( #289, #151 ) ;
#291 = APPROVAL_DATE_TIME ( #290, #331 ) ;
#292 = PERSON_AND_ORGANIZATION ( #316, #284 ) ;
#293 = COORDINATED_UNIVERSAL_TIME_OFFSET ( 1, 0, .AHEAD. ) ;
#294 = CALENDAR_DATE ( 2013, 25, 1 ) ;
#295 = DATE_AND_TIME ( #294, #169 ) ;
#296 = PERSON_AND_ORGANIZATION ( #316, #284 ) ;
#297 = APPROVAL_PERSON_ORGANIZATION ( #296, #333, #124 ) ;
#298 = COORDINATED_UNIVERSAL_TIME_OFFSET ( 1, 0, .AHEAD. ) ;
#299 = CALENDAR_DATE ( 2013, 25, 1 ) ;
#300 = DATE_AND_TIME ( #299, #168 ) ;
#301 = APPROVAL_DATE_TIME ( #300, #333 ) ;
#302 = PERSON_AND_ORGANIZATION ( #316, #284 ) ;
#303 = PERSON_AND_ORGANIZATION ( #316, #284 ) ;
#304 = PERSON_AND_ORGANIZATION ( #316, #284 ) ;
#305 = COORDINATED_UNIVERSAL_TIME_OFFSET ( 1, 0, .AHEAD. ) ;
#306 = CALENDAR_DATE ( 2013, 25, 1 ) ;
#307 = DATE_AND_TIME ( #306, #170 ) ;
#308 = PERSON_AND_ORGANIZATION ( #316, #284 ) ;
#309 = APPROVAL_PERSON_ORGANIZATION ( #308, #320, #131 ) ;
#310 = COORDINATED_UNIVERSAL_TIME_OFFSET ( 1, 0, .AHEAD. ) ;
#311 = CALENDAR_DATE ( 2013, 25, 1 ) ;
#312 = DATE_AND_TIME ( #311, #171 ) ;
#313 = APPROVAL_DATE_TIME ( #312, #320 ) ;
#314 = UNCERTAINTY_MEASURE_WITH_UNIT (LENGTH_MEASURE( 1.000000000000000100E-005 ), #107, 'distance_accuracy_value', 'NONE');
#315 = PRODUCT ( '084.302.010', '084.302.010', '', ( #115 ) ) ;
#316 = PERSON ( 'NON SPECIFICATO', 'NON SPECIFICATO', 'NON SPECIFICATO', ('NON SPECIFICATO'), ('NON SPECIFICATO'), ('NON SPECIFICATO') ) ;
#317 = MANIFOLD_SOLID_BREP ( 'M8x1.25 Foro filettato profondo1', #244 ) ;
#318 = ADVANCED_BREP_SHAPE_REPRESENTATION ( '084.302.010', ( #317, #362 ), #153 ) ;
#319 = AXIS2_PLACEMENT_3D ( 'NONE', #88, #89, #90 ) ;
#320 = APPROVAL ( #130, 'NON SPECIFICATO' ) ;
#321 = AXIS2_PLACEMENT_3D ( 'NONE', #10, #9, #8 ) ;
#322 = CIRCLE ( 'NONE', #375, 3.399999999999987900 ) ;
#323 = PRODUCT_DEFINITION ( 'NON CONOSCIUTO', '', #336, #376 ) ;
#324 = VECTOR ( 'NONE', #64, 1000.000000000000000 ) ;
#325 = VECTOR ( 'NONE', #68, 1000.000000000000000 ) ;
#326 = VECTOR ( 'NONE', #16, 1000.000000000000000 ) ;
#327 = VECTOR ( 'NONE', #75, 1000.000000000000000 ) ;
#328 = AXIS2_PLACEMENT_3D ( 'NONE', #41, #42, #43 ) ;
#329 = CC_DESIGN_PERSON_AND_ORGANIZATION_ASSIGNMENT ( #285, #116, ( #315 ) ) ;
#330 = VECTOR ( 'NONE', #23, 1000.000000000000000 ) ;
#331 = APPROVAL ( #119, 'NON SPECIFICATO' ) ;
#332 = CC_DESIGN_PERSON_AND_ORGANIZATION_ASSIGNMENT ( #302, #125, ( #336 ) ) ;
#333 = APPROVAL ( #123, 'NON SPECIFICATO' ) ;
#334 = AXIS2_PLACEMENT_3D ( 'NONE', #6, #2, #1 ) ;
#335 = AXIS2_PLACEMENT_3D ( 'NONE', #45, #46, #47 ) ;
#336 = PRODUCT_DEFINITION_FORMATION_WITH_SPECIFIED_SOURCE ( 'TUTTO', '', #315, .NOT_KNOWN. ) ;
#337 = SECURITY_CLASSIFICATION ( '', '', #127 ) ;
#338 = CC_DESIGN_DATE_AND_TIME_ASSIGNMENT ( #295, #122, ( #323 ) ) ;
#339 = AXIS2_PLACEMENT_3D ( 'NONE', #14, #13, #12 ) ;
#340 = VECTOR ( 'NONE', #70, 1000.000000000000000 ) ;
#341 = AXIS2_PLACEMENT_3D ( 'NONE', #71, #72, #73 ) ;
#342 = CC_DESIGN_APPROVAL ( #333, ( #336 ) ) ;
#343 = AXIS2_PLACEMENT_3D ( 'NONE', #48, #49, #50 ) ;
#344 = CC_DESIGN_PERSON_AND_ORGANIZATION_ASSIGNMENT ( #292, #121, ( #323 ) ) ;
#345 = AXIS2_PLACEMENT_3D ( 'NONE', #58, #59, #60 ) ;
#346 = CC_DESIGN_PERSON_AND_ORGANIZATION_ASSIGNMENT ( #303, #126, ( #336 ) ) ;
#347 = AXIS2_PLACEMENT_3D ( 'NONE', #52, #53, #54 ) ;
#348 = VECTOR ( 'NONE', #79, 1000.000000000000000 ) ;
#349 = CC_DESIGN_SECURITY_CLASSIFICATION ( #337, ( #336 ) ) ;
#350 = VECTOR ( 'NONE', #85, 1000.000000000000000 ) ;
#351 = AXIS2_PLACEMENT_3D ( 'NONE', #31, #30, #29 ) ;
#352 = CC_DESIGN_APPROVAL ( #320, ( #337 ) ) ;
#353 = CC_DESIGN_PERSON_AND_ORGANIZATION_ASSIGNMENT ( #304, #128, ( #337 ) ) ;
#354 = VECTOR ( 'NONE', #83, 1000.000000000000000 ) ;
#355 = AXIS2_PLACEMENT_3D ( 'NONE', #3, #4, #5 ) ;
#356 = CIRCLE ( 'NONE', #351, 3.399999999999998600 ) ;
#357 = VECTOR ( 'NONE', #27, 1000.000000000000000 ) ;
#358 = VECTOR ( 'NONE', #21, 1000.000000000000000 ) ;
#359 = CC_DESIGN_APPROVAL ( #331, ( #323 ) ) ;
#360 = VECTOR ( 'NONE', #77, 1000.000000000000000 ) ;
#361 = CIRCLE ( 'NONE', #341, 3.399999999999987900 ) ;
#362 = AXIS2_PLACEMENT_3D ( 'NONE', #110, #111, #112 ) ;
#363 = VECTOR ( 'NONE', #25, 1000.000000000000000 ) ;
#364 = VECTOR ( 'NONE', #87, 1000.000000000000000 ) ;
#365 = VECTOR ( 'NONE', #66, 1000.000000000000000 ) ;
#366 = CC_DESIGN_DATE_AND_TIME_ASSIGNMENT ( #307, #129, ( #337 ) ) ;
#367 = VECTOR ( 'NONE', #56, 1000.000000000000000 ) ;
#368 = AXIS2_PLACEMENT_3D ( 'NONE', #37, #38, #39 ) ;
#369 = CIRCLE ( 'NONE', #319, 3.399999999999998600 ) ;
#370 = VECTOR ( 'NONE', #34, 1000.000000000000000 ) ;
#371 = VECTOR ( 'NONE', #62, 1000.000000000000000 ) ;
#372 = VECTOR ( 'NONE', #81, 1000.000000000000000 ) ;
#373 = PRODUCT_RELATED_PRODUCT_CATEGORY ( 'detail', '', ( #315 ) ) ;
#374 = VECTOR ( 'NONE', #32, 1000.000000000000000 ) ;
#375 = AXIS2_PLACEMENT_3D ( 'NONE', #20, #19, #18 ) ;
#376 = DESIGN_CONTEXT ( 'detailed design', #117, 'design' ) ;
#377 = PRODUCT_DEFINITION_SHAPE ( 'NONE', 'NONE',  #323 ) ;
ENDSEC;
END-ISO-10303-21;
