ISO-10303-21;
HEADER;
FILE_DESCRIPTION (( 'STEP AP203' ),
    '1' );
FILE_NAME ('084.106.160.STEP',
    '2015-05-20T09:35:45',
    ( '' ),
    ( '' ),
    'SwSTEP 2.0',
    'SolidWorks 2012',
    '' );
FILE_SCHEMA (( 'CONFIG_CONTROL_DESIGN' ));
ENDSEC;

DATA;
#1 = MANIFOLD_SOLID_BREP ( 'Rivoluzione1', #32 ) ;
#2 = UNCERTAINTY_MEASURE_WITH_UNIT (LENGTH_MEASURE( 1.000000000000000100E-005 ), #113, 'distance_accuracy_value', 'NONE');
#3 = ADVANCED_BREP_SHAPE_REPRESENTATION ( '084.106.160', ( #1, #74 ), #80 ) ;
#4 = PERSON ( 'NON SPECIFICATO', 'NON SPECIFICATO', 'NON SPECIFICATO', ('NON SPECIFICATO'), ('NON SPECIFICATO'), ('NON SPECIFICATO') ) ;
#5 = PRODUCT ( '084.106.160', '084.106.160', '', ( #93 ) ) ;
#6 = APPROVAL_DATE_TIME ( #16, #58 ) ;
#7 = PERSON_AND_ORGANIZATION ( #4, #46 ) ;
#8 = COORDINATED_UNIVERSAL_TIME_OFFSET ( 1, 0, .AHEAD. ) ;
#9 = APPROVAL_DATE_TIME ( #51, #59 ) ;
#10 = EDGE_LOOP ( 'NONE', ( #39, #24 ) ) ;
#11 = LOCAL_TIME ( 11, 35, 45.00000000000000000, #40 ) ;
#12 = APPROVAL_DATE_TIME ( #18, #67 ) ;
#13 = APPROVAL_PERSON_ORGANIZATION ( #25, #67, #111 ) ;
#14 = LOCAL_TIME ( 11, 35, 45.00000000000000000, #15 ) ;
#15 = COORDINATED_UNIVERSAL_TIME_OFFSET ( 1, 0, .AHEAD. ) ;
#16 = DATE_AND_TIME ( #54, #20 ) ;
#17 = ORIENTED_EDGE ( 'NONE', *, *, #78, .T. ) ;
#18 = DATE_AND_TIME ( #22, #50 ) ;
#19 = VERTEX_POINT ( 'NONE', #122 ) ;
#20 = LOCAL_TIME ( 11, 35, 45.00000000000000000, #8 ) ;
#21 = CIRCLE ( 'NONE', #75, 3.174999999999997200 ) ;
#22 = CALENDAR_DATE ( 2015, 20, 5 ) ;
#23 = APPROVAL_PERSON_ORGANIZATION ( #56, #59, #105 ) ;
#24 = ORIENTED_EDGE ( 'NONE', *, *, #72, .T. ) ;
#25 = PERSON_AND_ORGANIZATION ( #4, #46 ) ;
#26 = SPHERICAL_SURFACE ( 'NONE', #65, 3.174999999999997200 ) ;
#27 = FACE_OUTER_BOUND ( 'NONE', #47, .T. ) ;
#28 = COORDINATED_UNIVERSAL_TIME_OFFSET ( 1, 0, .AHEAD. ) ;
#29 = FACE_OUTER_BOUND ( 'NONE', #10, .T. ) ;
#30 = COORDINATED_UNIVERSAL_TIME_OFFSET ( 1, 0, .AHEAD. ) ;
#31 = CALENDAR_DATE ( 2015, 20, 5 ) ;
#32 = CLOSED_SHELL ( 'NONE', ( #85, #86 ) ) ;
#33 = CALENDAR_DATE ( 2015, 20, 5 ) ;
#34 = PERSON_AND_ORGANIZATION ( #4, #46 ) ;
#35 = VERTEX_POINT ( 'NONE', #124 ) ;
#36 = SHAPE_DEFINITION_REPRESENTATION ( #84, #3 ) ;
#37 = CIRCLE ( 'NONE', #76, 3.174999999999997200 ) ;
#38 = ORIENTED_EDGE ( 'NONE', *, *, #72, .F. ) ;
#39 = ORIENTED_EDGE ( 'NONE', *, *, #78, .F. ) ;
#40 = COORDINATED_UNIVERSAL_TIME_OFFSET ( 1, 0, .AHEAD. ) ;
#41 = PERSON_AND_ORGANIZATION ( #4, #46 ) ;
#42 = DATE_AND_TIME ( #31, #14 ) ;
#43 = DATE_AND_TIME ( #44, #11 ) ;
#44 = CALENDAR_DATE ( 2015, 20, 5 ) ;
#45 = LOCAL_TIME ( 11, 35, 45.00000000000000000, #28 ) ;
#46 = ORGANIZATION ( 'NON SPECIFICATO', 'NON SPECIFICATO', '' ) ;
#47 = EDGE_LOOP ( 'NONE', ( #38, #17 ) ) ;
#48 = PERSON_AND_ORGANIZATION ( #4, #46 ) ;
#49 = PERSON_AND_ORGANIZATION ( #4, #46 ) ;
#50 = LOCAL_TIME ( 11, 35, 45.00000000000000000, #30 ) ;
#51 = DATE_AND_TIME ( #33, #45 ) ;
#52 = SPHERICAL_SURFACE ( 'NONE', #57, 3.174999999999997200 ) ;
#53 = APPROVAL_PERSON_ORGANIZATION ( #7, #58, #103 ) ;
#54 = CALENDAR_DATE ( 2015, 20, 5 ) ;
#55 = PERSON_AND_ORGANIZATION ( #4, #46 ) ;
#56 = PERSON_AND_ORGANIZATION ( #4, #46 ) ;
#57 = AXIS2_PLACEMENT_3D ( 'NONE', #120, #125, #90 ) ;
#58 = APPROVAL ( #102, 'NON SPECIFICATO' ) ;
#59 = APPROVAL ( #110, 'NON SPECIFICATO' ) ;
#60 = CC_DESIGN_PERSON_AND_ORGANIZATION_ASSIGNMENT ( #41, #104, ( #81 ) ) ;
#61 = CC_DESIGN_APPROVAL ( #59, ( #81 ) ) ;
#62 = CC_DESIGN_PERSON_AND_ORGANIZATION_ASSIGNMENT ( #34, #95, ( #77 ) ) ;
#63 = CC_DESIGN_DATE_AND_TIME_ASSIGNMENT ( #43, #106, ( #81 ) ) ;
#64 = CC_DESIGN_APPROVAL ( #58, ( #77 ) ) ;
#65 = AXIS2_PLACEMENT_3D ( 'NONE', #115, #116, #121 ) ;
#66 = PRODUCT_RELATED_PRODUCT_CATEGORY ( 'detail', '', ( #5 ) ) ;
#67 = APPROVAL ( #109, 'NON SPECIFICATO' ) ;
#68 = SECURITY_CLASSIFICATION ( '', '', #99 ) ;
#69 = CC_DESIGN_PERSON_AND_ORGANIZATION_ASSIGNMENT ( #49, #100, ( #77 ) ) ;
#70 = CC_DESIGN_PERSON_AND_ORGANIZATION_ASSIGNMENT ( #48, #98, ( #68 ) ) ;
#71 = CC_DESIGN_SECURITY_CLASSIFICATION ( #68, ( #77 ) ) ;
#72 = EDGE_CURVE ( 'NONE', #19, #35, #37, .T. ) ;
#73 = CC_DESIGN_APPROVAL ( #67, ( #68 ) ) ;
#74 = AXIS2_PLACEMENT_3D ( 'NONE', #87, #89, #94 ) ;
#75 = AXIS2_PLACEMENT_3D ( 'NONE', #114, #91, #123 ) ;
#76 = AXIS2_PLACEMENT_3D ( 'NONE', #112, #118, #88 ) ;
#77 = PRODUCT_DEFINITION_FORMATION_WITH_SPECIFIED_SOURCE ( 'TUTTO', '', #5, .NOT_KNOWN. ) ;
#78 = EDGE_CURVE ( 'NONE', #19, #35, #21, .T. ) ;
#79 = CC_DESIGN_DATE_AND_TIME_ASSIGNMENT ( #42, #107, ( #68 ) ) ;
#80 =( GEOMETRIC_REPRESENTATION_CONTEXT ( 3 ) GLOBAL_UNCERTAINTY_ASSIGNED_CONTEXT ( ( #2 ) ) GLOBAL_UNIT_ASSIGNED_CONTEXT ( ( #113, #117, #101 ) ) REPRESENTATION_CONTEXT ( 'NONE', 'WORKASPACE' ) );
#81 = PRODUCT_DEFINITION ( 'NON CONOSCIUTO', '', #77, #83 ) ;
#82 = CC_DESIGN_PERSON_AND_ORGANIZATION_ASSIGNMENT ( #55, #92, ( #5 ) ) ;
#83 = DESIGN_CONTEXT ( 'detailed design', #119, 'design' ) ;
#84 = PRODUCT_DEFINITION_SHAPE ( 'NONE', 'NONE',  #81 ) ;
#85 = ADVANCED_FACE ( 'NONE', ( #29 ), #52, .T. ) ;
#86 = ADVANCED_FACE ( 'NONE', ( #27 ), #26, .T. ) ;
#87 = CARTESIAN_POINT ( 'NONE',  ( 0.0000000000000000000, 0.0000000000000000000, 0.0000000000000000000 ) ) ;
#88 = DIRECTION ( 'NONE',  ( 0.0000000000000000000, 1.000000000000000000, 1.224646799147353200E-016 ) ) ;
#89 = DIRECTION ( 'NONE',  ( 0.0000000000000000000, 0.0000000000000000000, 1.000000000000000000 ) ) ;
#90 = DIRECTION ( 'NONE',  ( 0.0000000000000000000, 1.000000000000000000, 0.0000000000000000000 ) ) ;
#91 = DIRECTION ( 'NONE',  ( -0.0000000000000000000, 0.0000000000000000000, 1.000000000000000000 ) ) ;
#92 = PERSON_AND_ORGANIZATION_ROLE ( 'design_owner' ) ;
#93 = MECHANICAL_CONTEXT ( 'NONE', #96, 'mechanical' ) ;
#94 = DIRECTION ( 'NONE',  ( 1.000000000000000000, 0.0000000000000000000, 0.0000000000000000000 ) ) ;
#95 = PERSON_AND_ORGANIZATION_ROLE ( 'creator' ) ;
#96 = APPLICATION_CONTEXT ( 'configuration controlled 3d designs of mechanical parts and assemblies' ) ;
#97 = APPLICATION_PROTOCOL_DEFINITION ( 'international standard', 'config_control_design', 1994, #96 ) ;
#98 = PERSON_AND_ORGANIZATION_ROLE ( 'classification_officer' ) ;
#99 = SECURITY_CLASSIFICATION_LEVEL ( 'unclassified' ) ;
#100 = PERSON_AND_ORGANIZATION_ROLE ( 'design_supplier' ) ;
#101 =( NAMED_UNIT ( * ) SI_UNIT ( $, .STERADIAN. ) SOLID_ANGLE_UNIT ( ) );
#102 = APPROVAL_STATUS ( 'not_yet_approved' ) ;
#103 = APPROVAL_ROLE ( '' ) ;
#104 = PERSON_AND_ORGANIZATION_ROLE ( 'creator' ) ;
#105 = APPROVAL_ROLE ( '' ) ;
#106 = DATE_TIME_ROLE ( 'creation_date' ) ;
#107 = DATE_TIME_ROLE ( 'classification_date' ) ;
#108 = APPLICATION_PROTOCOL_DEFINITION ( 'international standard', 'config_control_design', 1994, #119 ) ;
#109 = APPROVAL_STATUS ( 'not_yet_approved' ) ;
#110 = APPROVAL_STATUS ( 'not_yet_approved' ) ;
#111 = APPROVAL_ROLE ( '' ) ;
#112 = CARTESIAN_POINT ( 'NONE',  ( 0.0000000000000000000, 0.0000000000000000000, 0.0000000000000000000 ) ) ;
#113 =( LENGTH_UNIT ( ) NAMED_UNIT ( * ) SI_UNIT ( .MILLI., .METRE. ) );
#114 = CARTESIAN_POINT ( 'NONE',  ( 0.0000000000000000000, 0.0000000000000000000, 0.0000000000000000000 ) ) ;
#115 = CARTESIAN_POINT ( 'NONE',  ( 0.0000000000000000000, 0.0000000000000000000, 0.0000000000000000000 ) ) ;
#116 = DIRECTION ( 'NONE',  ( -0.0000000000000000000, 0.0000000000000000000, -1.000000000000000000 ) ) ;
#117 =( NAMED_UNIT ( * ) PLANE_ANGLE_UNIT ( ) SI_UNIT ( $, .RADIAN. ) );
#118 = DIRECTION ( 'NONE',  ( 0.0000000000000000000, 1.224646799147353200E-016, -1.000000000000000000 ) ) ;
#119 = APPLICATION_CONTEXT ( 'configuration controlled 3d designs of mechanical parts and assemblies' ) ;
#120 = CARTESIAN_POINT ( 'NONE',  ( 0.0000000000000000000, 0.0000000000000000000, 0.0000000000000000000 ) ) ;
#121 = DIRECTION ( 'NONE',  ( 0.0000000000000000000, 1.000000000000000000, 0.0000000000000000000 ) ) ;
#122 = CARTESIAN_POINT ( 'NONE',  ( 3.174999999999997200, 1.944126793646421600E-016, 0.0000000000000000000 ) ) ;
#123 = DIRECTION ( 'NONE',  ( 1.000000000000000000, 0.0000000000000000000, 0.0000000000000000000 ) ) ;
#124 = CARTESIAN_POINT ( 'NONE',  ( -3.174999999999997200, 1.944126793646421600E-016, 0.0000000000000000000 ) ) ;
#125 = DIRECTION ( 'NONE',  ( -0.0000000000000000000, 0.0000000000000000000, -1.000000000000000000 ) ) ;
ENDSEC;
END-ISO-10303-21;
