ISO-10303-21;
HEADER;
FILE_DESCRIPTION (( 'STEP AP203' ),
    '1' );
FILE_NAME ('084.106.131.STEP',
    '2015-05-14T14:28:47',
    ( '' ),
    ( '' ),
    'SwSTEP 2.0',
    'SolidWorks 2012',
    '' );
FILE_SCHEMA (( 'CONFIG_CONTROL_DESIGN' ));
ENDSEC;

DATA;
#1 = APPLICATION_CONTEXT ( 'configuration controlled 3d designs of mechanical parts and assemblies' ) ;
#2 = CARTESIAN_POINT ( 'NONE',  ( 0.0000000000000000000, 0.0000000000000000000, 0.0000000000000000000 ) ) ;
#3 = DIRECTION ( 'NONE',  ( 0.0000000000000000000, 0.0000000000000000000, 1.000000000000000000 ) ) ;
#4 = DIRECTION ( 'NONE',  ( 1.000000000000000000, 0.0000000000000000000, 0.0000000000000000000 ) ) ;
#5 = APPLICATION_PROTOCOL_DEFINITION ( 'international standard', 'config_control_design', 1994, #1 ) ;
#6 = MECHANICAL_CONTEXT ( 'NONE', #1, 'mechanical' ) ;
#7 = PERSON_AND_ORGANIZATION_ROLE ( 'design_owner' ) ;
#8 = APPLICATION_CONTEXT ( 'configuration controlled 3d designs of mechanical parts and assemblies' ) ;
#9 = APPLICATION_PROTOCOL_DEFINITION ( 'international standard', 'config_control_design', 1994, #8 ) ;
#10 = APPROVAL_STATUS ( 'not_yet_approved' ) ;
#11 = CARTESIAN_POINT ( 'NONE',  ( 1.836970198721029400E-016, -2.999999999999999100, 0.0000000000000000000 ) ) ;
#12 = CARTESIAN_POINT ( 'NONE',  ( 1.836970198721029400E-016, 2.999999999999999100, 0.0000000000000000000 ) ) ;
#13 = CARTESIAN_POINT ( 'NONE',  ( 0.0000000000000000000, 0.0000000000000000000, 0.0000000000000000000 ) ) ;
#14 = DIRECTION ( 'NONE',  ( 0.0000000000000000000, 0.0000000000000000000, -1.000000000000000000 ) ) ;
#15 = DIRECTION ( 'NONE',  ( 1.000000000000000000, 0.0000000000000000000, 0.0000000000000000000 ) ) ;
#16 =( LENGTH_UNIT ( ) NAMED_UNIT ( * ) SI_UNIT ( .MILLI., .METRE. ) );
#17 =( NAMED_UNIT ( * ) PLANE_ANGLE_UNIT ( ) SI_UNIT ( $, .RADIAN. ) );
#18 =( NAMED_UNIT ( * ) SI_UNIT ( $, .STERADIAN. ) SOLID_ANGLE_UNIT ( ) );
#19 = APPROVAL_ROLE ( '' ) ;
#20 = APPROVAL_PERSON_ORGANIZATION ( #55, #88, #59 ) ;
#21 = COORDINATED_UNIVERSAL_TIME_OFFSET ( 1, 0, .AHEAD. ) ;
#22 = LOCAL_TIME ( 16, 28, 47.00000000000000000, #21 ) ;
#23 = CALENDAR_DATE ( 2015, 14, 5 ) ;
#24 = DATE_AND_TIME ( #23, #22 ) ;
#25 = APPROVAL_DATE_TIME ( #24, #88 ) ;
#26 = PERSON_AND_ORGANIZATION ( #40, #112 ) ;
#27 = PERSON_AND_ORGANIZATION ( #40, #112 ) ;
#28 = PERSON_AND_ORGANIZATION ( #40, #112 ) ;
#29 = COORDINATED_UNIVERSAL_TIME_OFFSET ( 1, 0, .AHEAD. ) ;
#30 = LOCAL_TIME ( 16, 28, 47.00000000000000000, #29 ) ;
#31 = CALENDAR_DATE ( 2015, 14, 5 ) ;
#32 = DATE_AND_TIME ( #31, #30 ) ;
#33 = PERSON_AND_ORGANIZATION ( #40, #112 ) ;
#34 = APPROVAL_PERSON_ORGANIZATION ( #33, #84, #121 ) ;
#35 = COORDINATED_UNIVERSAL_TIME_OFFSET ( 1, 0, .AHEAD. ) ;
#36 = MANIFOLD_SOLID_BREP ( 'Rivoluzione1', #44 ) ;
#37 = ADVANCED_BREP_SHAPE_REPRESENTATION ( '084.106.131', ( #36, #71 ), #75 ) ;
#38 = UNCERTAINTY_MEASURE_WITH_UNIT (LENGTH_MEASURE( 1.000000000000000100E-005 ), #16, 'distance_accuracy_value', 'NONE');
#39 = PRODUCT ( '084.106.131', '084.106.131', '', ( #6 ) ) ;
#40 = PERSON ( 'NON SPECIFICATO', 'NON SPECIFICATO', 'NON SPECIFICATO', ('NON SPECIFICATO'), ('NON SPECIFICATO'), ('NON SPECIFICATO') ) ;
#41 = FACE_OUTER_BOUND ( 'NONE', #43, .T. ) ;
#42 = VERTEX_POINT ( 'NONE', #11 ) ;
#43 = EDGE_LOOP ( 'NONE', ( #97, #96 ) ) ;
#44 = CLOSED_SHELL ( 'NONE', ( #110, #109 ) ) ;
#45 = VERTEX_POINT ( 'NONE', #12 ) ;
#46 = DESIGN_CONTEXT ( 'detailed design', #8, 'design' ) ;
#47 = PRODUCT_DEFINITION_SHAPE ( 'NONE', 'NONE',  #79 ) ;
#48 = DATE_AND_TIME ( #118, #117 ) ;
#49 = APPROVAL_DATE_TIME ( #48, #80 ) ;
#50 = PERSON_AND_ORGANIZATION ( #40, #112 ) ;
#51 = COORDINATED_UNIVERSAL_TIME_OFFSET ( 1, 0, .AHEAD. ) ;
#52 = LOCAL_TIME ( 16, 28, 47.00000000000000000, #51 ) ;
#53 = CALENDAR_DATE ( 2015, 14, 5 ) ;
#54 = DATE_AND_TIME ( #53, #52 ) ;
#55 = PERSON_AND_ORGANIZATION ( #40, #112 ) ;
#56 = PERSON_AND_ORGANIZATION_ROLE ( 'creator' ) ;
#57 = DATE_TIME_ROLE ( 'creation_date' ) ;
#58 = APPROVAL_STATUS ( 'not_yet_approved' ) ;
#59 = APPROVAL_ROLE ( '' ) ;
#60 = PERSON_AND_ORGANIZATION_ROLE ( 'creator' ) ;
#61 = PERSON_AND_ORGANIZATION_ROLE ( 'design_supplier' ) ;
#62 = SECURITY_CLASSIFICATION_LEVEL ( 'unclassified' ) ;
#63 = PERSON_AND_ORGANIZATION_ROLE ( 'classification_officer' ) ;
#64 = DATE_TIME_ROLE ( 'classification_date' ) ;
#65 = APPROVAL_STATUS ( 'not_yet_approved' ) ;
#66 = PRODUCT_RELATED_PRODUCT_CATEGORY ( 'detail', '', ( #39 ) ) ;
#67 = CC_DESIGN_SECURITY_CLASSIFICATION ( #76, ( #85 ) ) ;
#68 = EDGE_CURVE ( 'NONE', #42, #45, #98, .T. ) ;
#69 = AXIS2_PLACEMENT_3D ( 'NONE', #92, #101, #102 ) ;
#70 = AXIS2_PLACEMENT_3D ( 'NONE', #103, #104, #105 ) ;
#71 = AXIS2_PLACEMENT_3D ( 'NONE', #2, #3, #4 ) ;
#72 = AXIS2_PLACEMENT_3D ( 'NONE', #106, #107, #108 ) ;
#73 = AXIS2_PLACEMENT_3D ( 'NONE', #13, #14, #15 ) ;
#74 = EDGE_CURVE ( 'NONE', #42, #45, #99, .T. ) ;
#75 =( GEOMETRIC_REPRESENTATION_CONTEXT ( 3 ) GLOBAL_UNCERTAINTY_ASSIGNED_CONTEXT ( ( #38 ) ) GLOBAL_UNIT_ASSIGNED_CONTEXT ( ( #16, #17, #18 ) ) REPRESENTATION_CONTEXT ( 'NONE', 'WORKASPACE' ) );
#76 = SECURITY_CLASSIFICATION ( '', '', #62 ) ;
#77 = CC_DESIGN_PERSON_AND_ORGANIZATION_ASSIGNMENT ( #113, #7, ( #39 ) ) ;
#78 = CC_DESIGN_PERSON_AND_ORGANIZATION_ASSIGNMENT ( #28, #63, ( #76 ) ) ;
#79 = PRODUCT_DEFINITION ( 'NON CONOSCIUTO', '', #85, #46 ) ;
#80 = APPROVAL ( #10, 'NON SPECIFICATO' ) ;
#81 = CC_DESIGN_PERSON_AND_ORGANIZATION_ASSIGNMENT ( #26, #60, ( #85 ) ) ;
#82 = CC_DESIGN_DATE_AND_TIME_ASSIGNMENT ( #32, #64, ( #76 ) ) ;
#83 = CC_DESIGN_DATE_AND_TIME_ASSIGNMENT ( #54, #57, ( #79 ) ) ;
#84 = APPROVAL ( #65, 'NON SPECIFICATO' ) ;
#85 = PRODUCT_DEFINITION_FORMATION_WITH_SPECIFIED_SOURCE ( 'TUTTO', '', #39, .NOT_KNOWN. ) ;
#86 = CC_DESIGN_APPROVAL ( #84, ( #76 ) ) ;
#87 = CC_DESIGN_PERSON_AND_ORGANIZATION_ASSIGNMENT ( #27, #61, ( #85 ) ) ;
#88 = APPROVAL ( #58, 'NON SPECIFICATO' ) ;
#89 = CC_DESIGN_APPROVAL ( #80, ( #79 ) ) ;
#90 = CC_DESIGN_APPROVAL ( #88, ( #85 ) ) ;
#91 = CC_DESIGN_PERSON_AND_ORGANIZATION_ASSIGNMENT ( #50, #56, ( #79 ) ) ;
#92 = CARTESIAN_POINT ( 'NONE',  ( 0.0000000000000000000, 0.0000000000000000000, 0.0000000000000000000 ) ) ;
#93 = EDGE_LOOP ( 'NONE', ( #95, #94 ) ) ;
#94 = ORIENTED_EDGE ( 'NONE', *, *, #74, .T. ) ;
#95 = ORIENTED_EDGE ( 'NONE', *, *, #68, .F. ) ;
#96 = ORIENTED_EDGE ( 'NONE', *, *, #68, .T. ) ;
#97 = ORIENTED_EDGE ( 'NONE', *, *, #74, .F. ) ;
#98 = CIRCLE ( 'NONE', #69, 2.999999999999999100 ) ;
#99 = CIRCLE ( 'NONE', #70, 2.999999999999999100 ) ;
#100 = SPHERICAL_SURFACE ( 'NONE', #72, 2.999999999999999100 ) ;
#101 = DIRECTION ( 'NONE',  ( 0.0000000000000000000, 0.0000000000000000000, 1.000000000000000000 ) ) ;
#102 = DIRECTION ( 'NONE',  ( 1.000000000000000000, 0.0000000000000000000, 0.0000000000000000000 ) ) ;
#103 = CARTESIAN_POINT ( 'NONE',  ( 0.0000000000000000000, 0.0000000000000000000, 0.0000000000000000000 ) ) ;
#104 = DIRECTION ( 'NONE',  ( 1.224646799147353200E-016, 0.0000000000000000000, -1.000000000000000000 ) ) ;
#105 = DIRECTION ( 'NONE',  ( -1.000000000000000000, 0.0000000000000000000, -1.224646799147353200E-016 ) ) ;
#106 = CARTESIAN_POINT ( 'NONE',  ( 0.0000000000000000000, 0.0000000000000000000, 0.0000000000000000000 ) ) ;
#107 = DIRECTION ( 'NONE',  ( 0.0000000000000000000, 0.0000000000000000000, -1.000000000000000000 ) ) ;
#108 = DIRECTION ( 'NONE',  ( 1.000000000000000000, 0.0000000000000000000, 0.0000000000000000000 ) ) ;
#109 = ADVANCED_FACE ( 'NONE', ( #41 ), #100, .T. ) ;
#110 = ADVANCED_FACE ( 'NONE', ( #120 ), #119, .T. ) ;
#111 = SHAPE_DEFINITION_REPRESENTATION ( #47, #37 ) ;
#112 = ORGANIZATION ( 'NON SPECIFICATO', 'NON SPECIFICATO', '' ) ;
#113 = PERSON_AND_ORGANIZATION ( #40, #112 ) ;
#114 = PERSON_AND_ORGANIZATION ( #40, #112 ) ;
#115 = APPROVAL_PERSON_ORGANIZATION ( #114, #80, #19 ) ;
#116 = COORDINATED_UNIVERSAL_TIME_OFFSET ( 1, 0, .AHEAD. ) ;
#117 = LOCAL_TIME ( 16, 28, 47.00000000000000000, #116 ) ;
#118 = CALENDAR_DATE ( 2015, 14, 5 ) ;
#119 = SPHERICAL_SURFACE ( 'NONE', #73, 2.999999999999999100 ) ;
#120 = FACE_OUTER_BOUND ( 'NONE', #93, .T. ) ;
#121 = APPROVAL_ROLE ( '' ) ;
#122 = LOCAL_TIME ( 16, 28, 47.00000000000000000, #35 ) ;
#123 = CALENDAR_DATE ( 2015, 14, 5 ) ;
#124 = DATE_AND_TIME ( #123, #122 ) ;
#125 = APPROVAL_DATE_TIME ( #124, #84 ) ;
ENDSEC;
END-ISO-10303-21;
